Bee Gees - Man In The Middle Chords & Tabs

 

Man In The Middle Chords & Tabs

Bee Gees Chords & Tabs

Version: 2 Type: Tab 0 ratings
1 star 2 stars 3 stars 4 stars 5 stars
comments

Man In The Middle Tab

   
ARTIST: Bee Gees
TITLE: Man In The Middle
ALBUM: This Is Where I Came In
TABBED BY: Martin Kelly


INTRO
							Repeat once
E----0-0-3-2-----5--3--------5---5-----5---5---7---7--5-----------------------------------
B------------------------------------5---5------------------------------------------------
G-----------------------------------------------------------------------------------------
D-----------------------------------------------------------------------------------------
A-----------------------------------------------------------------------------------------
E-----------------------------------------------------------------------------------------
/
/
/
E--0--------------------------------------------------------------------------------------
B--0--------------------------------------------------------------------------------------
G--0--------------------------------------------------------------------------------------
D--2--------------------------------------------------------------------------------------
A--2--------------------------------------------------------------------------------------
E--0--------------------------------------------------------------------------------------


VERSE 1

Em  D  A  Em  D


VERSE 2+3

Em  D  A  Em


PRE-CHORUS

Em  A  Em  D


CHORUS

Em  C  G  D  Em  C  G  Am  Em  C  G  D  C

BRIDGE 1

[Harmonics]
[ Tab from: http://www.guitartabs.cc/tabs/b/bee_gees/man_in_the_middle_tab_ver_2.html ]
E--[12]-[12]-[12]-[12]-[12]-[12]-[12]-[12]-[12]-[12]-[12]-[12]----------------------------
B--------------------------------------------------------------12-10-12-------12-10-12----
G-----------------------------------------------------------------------9--------------9--
D-----------------------------------------------------------------------------------------
A-----------------------------------------------------------------------------------------
E-----------------------------------------------------------------------------------------
/
/
/					Slide
E--0-----------------------------3-2-3-2-----------------------0--------------------------
B--0-------------------------------------3/5-------------------0--------------------------
G--0-----------------------------------------------------------0--------------------------
D--2-----------------------------------------------------------2--------------------------
A--2-----------------------------------------------------------2--------------------------
E--0-----------------------------------------------------------0--------------------------

BRIDGE 2

[Harmonics]

E--[12]------[12]------[12]--------------------------------------------------------------[12]
B-------------------------------------------------12-10-12----12-10-12----12-10-12---[12]
G-------[12]------[12]-------------------------------------9-----------9-----------9------
D-----------------------------------------------------------------------------------------
A-----------------------------------------------------------------------------------------
E-----------------------------------------------------------------------------------------
/
/
/
E--0------------------------3-2-3-2---------------0---------------------------------------
B--0--------------------------------3/5-----------0---------------------------------------
G--0-------------------------------------2/4-4-4--0---------------------------------------
D--2----------------------------------------------2---------------------------------------
A--2----------------------------------------------2---------------------------------------
E--0----------------------------------------------0---------------------------------------

ENDING

Em  C  G  D  Em  C  G  Am  Em  C  G  D  C


E----0-0-3-2-----5--3--------5---5-----5---5---7---7--5-----------------------------------
B------------------------------------5---5------------------------------------------------
G-----------------------------------------------------------------------------------------
D-----------------------------------------------------------------------------------------
A-----------------------------------------------------------------------------------------
E-----------------------------------------------------------------------------------------
/
/
/
E--0--------------------------------------------------------------------------------------
B--0--------------------------------------------------------------------------------------
G--0--------------------------------------------------------------------------------------
D--2--------------------------------------------------------------------------------------
A--2--------------------------------------------------------------------------------------
E--0--------------------------------------------------------------------------------------


For a list of tabs, please contact martin.n.kelly@ntlworld.com
Comments