Bee Gees - Irresistible Force Chords & Tabs

 

Irresistible Force Chords & Tabs

Bee Gees Chords & Tabs

Version: 2 Type: Tab 0 ratings
1 star 2 stars 3 stars 4 stars 5 stars
comments

Irresistible Force Tab

ARTIST: Bee Gees
TITLE: Irresistible Force
ALBUM: Still Waters
TABBED BY: Martin Kelly


INTRO

GUITAR 1
E-----------------------------------------------------------------------------------------
B-----------------------------------------------------------------------------------------
G--------4-----------4-----------2----------2---------------------------------------------
D----5-5----5----5-5----5----5-5---5----5-5---5-------------------------------------------
A--5-----------5-----------5----------5---------------------------------------------------
E-----------------------------------------------------------------------------------------
						Repeat three times
GUITAR 2
E----------------------------------12-----------------------------------------------------
B--10---------------------12-13-12----10-10---------------------10--12-12[13]-12--8-10----
G-----------------------------------------------------------------------------------------
D-----------------------------------------------------------------------------------------
A-----------------------------------------------------------------------------------------
E-----------------------------------------------------------------------------------------

VERSE

GUITAR 1
E-----------------------------------------------------------------------------------------
B-----------------------------------------------------------------------------------------
G--------5---------5---------5---------4---------5------5------5--------4--------4--------
D----5-5-------5-5-------5-5-------5-5-------5-5------5------5------5-5------5-5------5-5-
A--5---------5---------5---------5---------5--------5------5------5--------5--------5-----
E-----------------------------------------------------------------------------------------
|
|GUITAR 2
E-----------------------------------------------------------------------------------------
B-----------------------------------------------------------------------------------10----
G---------------------------------------------------------------------------------9----9--
D-----------------------------------------------------------------------------------------
A-----------------------------------------------------------------------------------------
E-----------------------------------------------------------------------------------------
[ Tab from: http://www.guitartabs.cc/tabs/b/bee_gees/irresistible_force_tab_ver_2.html ]
GUITAR 1
E-----------------------------------------------------------------------------------------
B-----------------------------------------------------------------------------------------
G--4--------4-----------------------------------------------------------------------------
D-------5-5-------------------------------------------------------------------------------
A-----5-----------------------------------------------------------------------------------
E-----------------------------------------------------------------------------------------
|
|GUITAR 2
E-----------------------------------------------------------------------------------------
B--12-------------------------------------------------------------------------------------
G-----9-----------------------------------------------------------------------------------
D-----------------------------------------------------------------------------------------
A-----------------------------------------------------------------------------------------
E-----------------------------------------------------------------------------------------

CHORUS

GUITAR 1				Repeat twice.
E-----------------------------------------------------------------------------------------
B-----------------------------------------------------------------------------------------
G--------4--------4--------2--------5--4--------------------------------------------------
D----5-5------5-5------5-5------5-5-------------------------------------------------------
A--5--------5--------5--------5-----------------------------------------------------------
E-----------------------------------------------------------------------------------------

SOLO [Guitar 1 doesn't play anything]

E-----------------------------------------------------------------------------------------
B--8[10]------8---------------------------------8[10]--12[13]-12--------------------------
G--------------------9-7-7--7[9]-7[9]--------------------------------9-7-7-7-9-7-5--------
D---------------------------------------10-8---------------------------------------7-5----
A--------------------------------------------------------------------------------------7-5
E-----------------------------------------------------------------------------------------

E-----------------------------------------------------------------------------------------
B-----------------------------------------------------------------------------------------
G-----------------------------------------------------------------------------------------
D-----------------------------------------------------------------------------------------
A-----------------------------------------------------------------------------------------
E--7-5------------------------------------------------------------------------------------

CHORUS 3 [GUITAR 2]

E----------------------------------------------------------------------------------12-----
B-------------------------10--------------12[13]-12-10------12/13---12--10----------------
G-----------------------------------------------------------------------------------------
D-----------------------------------------------------------------------------------------
A-----------------------------------------------------------------------------------------
E-----------------------------------------------------------------------------------------

E--12/10----10----------------------------------------------------------------------------
B----------------10-----------------------------------------------------------------------
G-----------------------------------------------------------------------------------------
D-----------------------------------------------------------------------------------------
A-----------------------------------------------------------------------------------------
E-----------------------------------------------------------------------------------------
Comments