Bedouin Soundclash - Shelter Chords & Tabs

 

Shelter Chords & Tabs

Bedouin Soundclash Chords & Tabs

Version: 4 Type: Tab

Shelter Tab

Verse Part 1
e|--12------------------|
B|--12------------------| 12 chord is struck 3 times (down,up,down)
G|--12------------------|
D|-------0-1-222--------| I know thats the bass riff,
A|------2---------------| sounds awkward when playing alone without
E|----------------------| it.

Verse Part 2
e|-0--2--5--------------|
B|-0--3-5--------------| 1st chord- 4 times
G|-0--2--5--------------| 2nd chord- 4 times
D|----------------------| 3rd chord- 8 times
A|----------------------| all downstrokes
E|----------------------|
[ Tab from: http://www.guitartabs.cc/tabs/b/bedouin_soundclash/shelter_tab_ver_4.html ]
Chorus
e|-3--2--0--0--0--2-----| 1st chord- 4 times
B|-3--3--0--1--0--3-----| 2nd chord- 4 times
G|-4--2--0--0--0--2-----| 3rd chord- 8 times
D|----------------------| 4th chord- 4 times
A|----------------------| 5th chord- 4 times
E|----------------------| 6th chord- 8 times
                          all downstrokes

Part 1 (x6)
Part 2 (x1)
Part 1 (x2)
Part 2 (x1)
Chorus (x2)
Part 1 (x2)
Part 2 (x1)
Part 1 (x2)
Part 2 (x1)
Chorus (x2)
Part 1 (x2) Bass riff changes here, not sure how it goes.
Part 2 (x1)
Part 1 (x2)
Part 2 (x1)
Chorus (x2)
Part 1 (x5)