Bedouin Soundclash - Santa Monica Chords & Tabs

 

Santa Monica Chords & Tabs

Bedouin Soundclash Chords & Tabs

Version: 1 Type: Tab 0 ratings
1 star 2 stars 3 stars 4 stars 5 stars
comments

Santa Monica Tab

   
-----------------------------------------------------------------------------
			       Santa Monica
                            Bedouin SoundClash
-----------------------------------------------------------------------------
Tabbed by: Jim Hawkins
Email: jimbo_hawkins@hotmail.com

Tuning: standard EADGBe

The intro isn't perfect, but it's pretty damn close. Just listen to the song to get the 
down for the Am, F & C chords.

Intro:
e|---------------------------------------------------------------------------|
B|----1h0--------1-----------1---1-------------1-------1h0-------------------|
G|--------0--------------0h2---0----0h2--------------------0-----------------|
D|-------------2---2-2h3-------------------2h3-------------------------------|
A|-----------0---------------------------3-----------------------------------|
E|--3---------------------------------------------3-3------------------------|
[ Tab from: http://www.guitartabs.cc/tabs/b/bedouin_soundclash/santa_monica_tab.html ]
                                         G                 Am  F  C
e|---------------------------------------3--3--3--3--3--3---0--1--0--3-3-----|
B|------1-----------1---1-------------1--0--1--0--1--0--0---1--1--1--0-1p0---|
G|--------------0h2---0----0h2-----------0--0--0--0--0--0---2--2--0--0-0-----|
D|----2---2-2h3-------------------2h3----0--0--0--0--0--0---2--3--2--0-0-----|
A|--0---------------------------3--------2--2--2--2--2--2---0--3--3--2-2-----|
E|---------------------------------------3--3--3--3--3--3---x--x--x--3-3-----|

Verse: (repeat)

    "I remember you used to say that you were... "
    Am  F  C  G
e|---0--1--0--3--3--3--3--3--3-----------------------------------------------|
B|---1--1--1--0--1--0--0--0--0-----------------------------------------------|
G|---2--2--0--0--0--0--0--0--0-----------------------------------------------|
D|---2--3--2--0--0--0--0--0--0-----------------------------------------------|
A|---0--3--3--2--2--2--2--2--2-----------------------------------------------|
E|---x--x--x--3--3--3--3--3--3-----------------------------------------------|
Comments