Bedouin Soundclash - Nothing To Say Chords & Tabs

 

Nothing To Say Chords & Tabs

Bedouin Soundclash Chords & Tabs

Version: 1 Type: Tab 0 ratings
1 star 2 stars 3 stars 4 stars 5 stars
comments

Nothing To Say Tab

-------------------------------------------------------------------------------
                                Nothing To Say
                            By: Bedouin Soundclash
-------------------------------------------------------------------------------
Tabbed by: Danny Gonshor
Email: dgonsh@yahoo.com

Tuning: Standard EADGBe

       This is a fun song to play, very easy once you get the strumming down. its
in standard 4/4 time. just listen to the song for the rhythm and you'll be golden.

INTRO/VERSE (x8)

e|----5--------2------4------5-----7-----------------------------------------|
B|----5--------3------5------5-----7-----------------------------------------|
G|----6--------2------4------6-----7-----------------------------------------|
D|---------------------------------------------------------------------------|
A|---------------------------------------------------------------------------|
E|---------------------------------------------------------------------------|
[ Tab from: http://www.guitartabs.cc/tabs/b/bedouin_soundclash/nothing_to_say_tab.html ]
PRECHORUS (x1)  "Down in the marketplace, i came to hear this man say"

e|-----2-------2-----2------4------------------------------------------------|
B|-----3-------3-----3------5------------------------------------------------|
G|-----2-------4-----2------4------------------------------------------------|
D|---------------------------------------------------------------------------|
A|---------------------------------------------------------------------------|
E|---------------------------------------------------------------------------|

CHORUS (x4)

strumming is a lot faster here. i believe they would be 16th notes

e|------5------4------7-----4------------------------------------------------|
B|------5------5------7-----5------------------------------------------------|
G|------6------4------7-----4------------------------------------------------|
D|---------------------------------------------------------------------------|
A|---------------------------------------------------------------------------|
E|---------------------------------------------------------------------------|
Comments