Bedingfield Daniel - Gotta Get Thru This Chords & Tabs

 

Gotta Get Thru This Chords & Tabs

Bedingfield Daniel Chords & Tabs

Version: 1 Type: Tab 1 rating
1 star 2 stars 3 stars 4 stars 5 stars
comments

Gotta Get Thru This Tab

#----------------------------------PLEASE NOTE--------------------------------#
#This file is the author's own work and represents their interpretation of the#
#song. You may only use this file for private study, scholarship, or research.#
#-----------------------------------------------------------------------------#
#-- File created with Instab - http://www.pconline.com/~smcarey/instab.html --#
#-----------------------------------------------------------------------------#

Author/Artist: Daniel Bedingfield
Title: Gotta Get Thru This
Album: Gotta Get Thru This
Transcribed by: Me
Email: None

This isn't an exact copy of the song considering there
are several versions of it.   This version is for a solo acoustic 
guitar.  The strumming is hard to express in tab format...
it's a little fast for the verse so it might not make sense just from
looking at the tab.  Listen to the song and figure it out.  

You can also play this using just power chords for the verse 
and the chords I've shown for the bridge...just do whatever
sounds best.  The power chords are all there if you look hard 
enough ;)  

------------------------------------------------------------------------------
------------------------------------------------------------------------------
------------------------------------------------------------------------------
------------------------------------------------------------------------------
--------6-------------------5--6----------------------------------------------
----3------6----6--5----3----------6----6--5----------------------------------
   Intro, just do this.........................and repeat                     
[ Tab from: http://www.guitartabs.cc/tabs/b/bedingfield_daniel/gotta_get_thru_this_tab.html ]
---6----3----6----------------------------------------------------------------
---6----3----6----------------------------------------------------------------
---7----4----8-------------------------------7---8----------------------------
---8----5----8---------------------------5---7---8---8------8---7-------------
---8----5----6---------------------------5---5---6---8------8---7-------------
---6----3--------------------------------3-----------6------6---5-------------
 Or this...strum or pick              Or this...                              

-----3---x---5---6---x---6---x---6---6---x---6---x---5---x--------------------
-----3---x---5---6---x---6---x---6---6---x---6---x---5---x--------------------
-----4---x---7---8---x---7---x---7---7---x---7---x---6---x--------------------
-----5---x---7---8---x---8---x---8---8---x---8---x---7---x--------------------
-----5---x---5---6---x---8---x---8---8---x---8---x---7---x--------------------
-----3---x-----------x---6---x---6---6---x---6---x---5---x--------------------
 Verse goes like this...you can add or remove strums if ya want, whatever     

--3---x---5---6---x---6----3---5---6----8----6---5---3------------------------
--3---x---5---6---x---6----3---5---6----8----6---5---3------------------------
--4---x---7---8---x---7----4---6---7----9----7---6---4------------------------
--5---x---7---8---x---8----5---7---8----10---8---7---5------------------------
--5---x---5---6---x---8----5---7---8----10---8---7---5------------------------
--3---x-----------x---6----3---5---6----8----6---5---3------------------------
   Bridge                 ^  strum  ^                                         

---3---5---6------------------------------------------------------------------
---3---5---6------------------------------------------------------------------
---4---6---7------------------------------------------------------------------
---5---7---8------------------------------------------------------------------
---5---7---8------------------------------------------------------------------
---3---5---6------------------------------------------------------------------
  ^  strum  ^ When he sings "Eyes!!" at the end hold the last chord or strum  

------------------------------------------------------------------------------
------------------------------------------------------------------------------
------------------------------------------------------------------------------
------------------------------------------------------------------------------
------------------------------------------------------------------------------
------------------------------------------------------------------------------
 Chorus is the same as the verse                                              

Comments