Beck Christophe - The Loneliness Of Six Chords & Tabs

 

The Loneliness Of Six Chords & Tabs

Beck Christophe Chords & Tabs

Version: 1 Type: Tab 0 ratings
1 star 2 stars 3 stars 4 stars 5 stars
comments

The Loneliness Of Six Tab

‘The Loneliness of Six’
By Christophe Beck,
Tabbed by 99 Lives.

Taken from Buffy the Vampire Slayer Episode ‘Lovers Walk’ ending Series 3

I have only tabbed the guitar phrases not the orchestral intro.

The first two of phrases can be played in a couple of different ways – both shall be tabbed and the chosen method left to the player’s discretion.

1st Phrase Method One

E|---------------------------------5-------------8--7--5-----8--7—-5|
B|-----------8--7--5------------8-----5------5------------5---------|
G|--------4---—--------------4---------------5------------5---------|
D|-----5------------------5----------------------7--5--3-----7--5—-3|
A|--7--------7--5--3—-5/7-------7--5--3--2--------------------------|
E|-------------------------------------------5------------5---------|

E|--3--2----------3/5--2----------------------------5---------------|
B|-----------3---------3---------8--7--5---------8-----5------------|
G|--------2-----2--------------4---------------4--------------------|
D|--2--0----------0----0-----5---------------5----------------------|
A|-------------------------7-----7--5--3—5/7-----7--5--3------------|
E|------------------------------------------------------------------|


1st Phrase Method Two
[ Tab from: http://www.guitartabs.cc/tabs/b/beck_christophe/the_loneliness_of_six_tab.html ]
E|---------3--2--0----------3--5--0--------8--7--5-----8--7--5--3--2|
B|------0----------------0--------------5-----------5--------------3|
G|----0----------------0----------------5-----------5---------------|
D|--2------2--0---—0h2------2--0-----2-----7--5--3-----7--5--3--2--0|
A|---------------3----------------3-----0-----------0---------------|
E|------------------------------------------------------------------|

E|----2-------------------3--2--0----------3--5--0------------------|
B|---3---3--------------0----------------0--------------------------|
G|--2---2---0h2-------0----------------0----------------------------|
D|----------0----4--2-----2--0-----0h2-----2--0---------------------|
A|---------------5--------------3----------------3------------------|
E|------------------------------------------------------------------|


2nd Phrase 
E|------------------------------------------------------------------|
B|------1----3----5----7----8----10-------10---------------10/12--8-|
G|------0----0----0----0----0-----------7-----7----------9----------|
D|------2----0-----------------------10---------10----10---10/12--9-|
A|0--2--0----2----3----5----7----8------------------0---------------|
E|------------------------------------------------------------------|

E|---------------------------------------5--------------------------|
B|---------10--------------10------------5--------------------------|
G|-------9----9----------7--------7------5--------------------------|
D|----10--------10----10-------10---10---7--------------------------|
A|--8---------------8--------------------7--------------------------|
E|---------------------------------------5--------------------------|

This is completely right. I have spent hours listening to every 
aspect of this song and working it out. If you don't like it tough!
Comments