Beck - Sissyneck Chords & Tabs

 

Sissyneck Chords & Tabs

Beck Chords & Tabs

Version: 1 Type: Bass Tab 0 ratings
1 star 2 stars 3 stars 4 stars 5 stars
comments

Sissyneck Bass Tab

This Is practically the entire bassline for the whole song:, I think


    ~VERSE:~
G[-----------------------------------]
D[------2-0--------------------------]
A[--2-2------0-1-2-------------------]
E[-----------------------------------]

[ Tab from: http://www.guitartabs.cc/tabs/b/beck/sissyneck_btab.html ]
    ~CHORUS:~
G[----------------------------------------]
D[----------2-----------------------------]
A[-0-1-2-3----------------2---------------]
E[---------------0-1-2-3------------------]




Tabbed By mIke
If comments ARe Neccessary IM me AT: Trogdormws 
Email: Trogdormws@aol.com
Comments