Beck - Rental Car Chords & Tabs

 

Rental Car Chords & Tabs

Beck Chords & Tabs

Version: 1 Type: Tab 0 ratings
1 star 2 stars 3 stars 4 stars 5 stars
comments

Rental Car Tab

   
Ok, this is my first tab :). And what a great song to begin with. Rental Car is the 12
track from the latest Beck's album 'Guero' (wich is great, by the way). The tuning is D#
A D G B e. Ok, here we go:

/ = Slide
h = Hammer
() = This is not a part of the guitar, but sounds great anyway

Intro:

e-------------------------------------------------------|
B-------------------------------------------------------|
G-------------------------------------------------------|
D-------------------------------------------------------|
A-------------------------------------------------------|   Repeat this 4 times
D#-0-0--0---0-0--0--3/7---------------------------------|

e-------------------------------------------------------|
B-------------------------------------------------------|
G-------------------------------------------------------|
D-------------------------------------------------------|   4 times as well
A-------------------------------------------------------|
D#-0-0---7--10/12---12---12---12---12-------------------|


Verse:

e-------------------------------------------------------|
B-------------------------------------------------------|
G-------------------------------------------------------|   You guess it... 4 times
D-------------------------------------------------------|
A-------------------------------------------------------|
D#--12--10h12---7--7---5--5-----------------------------|


Pre-chorus:
[ Tab from: http://www.guitartabs.cc/tabs/b/beck/rental_car_tab.html ]
e-------------------------------------------------------|
B-------------------------------------------------------|
G-------------------------------------------------------|
D-------------------------------------------------------|   2 times
A-------------------------------------------------------|
D#--(10---12---10---9)---7---9---12---------------------|


Chorus:

e-------------------------------------------------------|
B-------------------------------------------------------|
G-------------------------------------------------------|   I don't know if this is what 
D--10---8--6--5-----------------------------------------|   guitar does... so i'm waiting 
A-------------------------------------------------------|   for a correction.(Repeat)
D#-11---9--7--6-----------------------------------------|

This is it, you have to listen to the song and play the parts in the apropiate part.
There is a part in the song where there's no guitar, but I will add it anyway, becouse 
sounds great:

The part with the woman voices, wait for the 3 time and play:

e--4--6--4--2---4--1--4-2-1-----------------------------|
B---------------------------4-----6----6-----6----6-----|     2 times and then the 
G------------------------------6----------6-------------|     riff from the intro    
D-----------------------------------6----------6--------|
A-------------------------------------------------------|
D#------------------------------------------------------|


Enjoy! Any suggestion, comments...? correoinservible3@hotmail.com
Comments