Beck - Novacane Chords & Tabs

 

Novacane Chords & Tabs

Beck Chords & Tabs

Version: 2 Type: Bass Tab 0 ratings
1 star 2 stars 3 stars 4 stars 5 stars
comments

Novacane Bass Tab

Novacane
Beck
Tabbed by Nick Key

Intro - 4x
-----------------------------
--------------------7--------
---5h7-7-7--7---5h7---7-7-7--
-0------------0--------------

Verse intro - 3x (Fig. 1)
--------------------------
--------------------------
-5-7--7-7-7--5-7--7-5-----
--------------------------

--------------------------
--------------------------
-5-7--7-7-7-(pause)--//---
--------------------------
[ Tab from: http://www.guitartabs.cc/tabs/b/beck/novacane_btab_ver_2.html ]
Verse - play fig. 1 until pause
Pause until second verse starts - 
Then repeat above from Verse intro
At "Express Mode," (if you really want to)
detune your low E-string, and then 
bring it past pitch and onto pitch again.

Then:
---------------------------------
-------------9/7-----------------
-7--10/12-7------7--10/12-7--9-5-
---------------------------------

Bridge      ^The whole detuning thing
---------------      takes place here also
---------------
-10----9-------
----10---9-0---

Back to intro
pause for the rest of the song while 
the really weird effects take over.
Comments