Beck - Minus Chords & Tabs

 

Minus Chords & Tabs

Beck Chords & Tabs

Version: 1 Type: Bass Tab 0 ratings
1 star 2 stars 3 stars 4 stars 5 stars
comments

Minus Bass Tab

Minus
Beck
Tabbed by whoever

1-------------------------
2-------------------------
3-----7-5-2-------7-5---5-
4-0-0-------4-4-4-----7---

Chorus
1---------------------------------------
2---------------------------------------
3-5-5-555-5-555-2222-5-5-555-5-555-2222-
4---------------------------------------
[ Tab from: http://www.guitartabs.cc/tabs/b/beck/minus_btab.html ]
1----------------------------------------
2----------------------------------------
3-0-0-000-0-000-/555---------------------
4---------------------2-2-222-2-222-2222-

Bridge
Repeat
1----------------------------------
2---------11--11-11-11-11-11-11-11-
3----------------------------------
4-0-0-000--------------------------

Then,
1----------------------------
2----------------------------
3-5/1--5/1--2--(2)/12--0--2--
4----------------------------

Then play verse
CHorus
Bridge

Outro 
----------------
----------------
-3-5-3-5-3-5----
-------------0--
Comments