Beck - Loser Chords & Tabs

 

Loser Chords & Tabs

Beck Chords & Tabs

Version: 2 Type: Tab 0 ratings
1 star 2 stars 3 stars 4 stars 5 stars
comments

Loser Tab

loser:by beck
                 drop d tuning gtrs 1 and 3
 gtr 1
----------------------------------------------------------------------
----------------------------------------------------------------------
----------------------------------------------------------------------
------------------0----------0-------5s--------------0-------0----5s--
------------------0----------0-------5s--------------0-------0----5s--
---0---s4-------------s4-------------5s---0--s4---------s4--------5s--
[ Tab from: http://www.guitartabs.cc/tabs/b/beck/loser_tab_ver_2.html ]
 gtr 2
----------------------------------------------------------------------
-----------------------------------------------------------------8----
----7-------9-------7---11-----11-----9--7--7----9--7--11-11--------7-
-------0--------------------------0-0---------0--------------0-0------
----------------------------------------------------------------------
----------------------------------------------------------------------

with guitars 1 and 2 play G5 and D un til the bridge


 gtr 3
----------------------------------------------------------------------
----3--1----3--1----3--1----3--1----3--1----3--1----3--1----3--1------
-2-------2-------2-------2-------2-------2-------2-------2--------2---
----------------------------------------------------------------------
----------------------------------------------------------------------
----------------------------------------------------------------------

--------------------------------------------------------
----3--2----3--2----3--1----3--1----3--1----3--1----3---
-2-------2-------2-------2-------2-------2-------2------
--------------------------------------------------------
--------------------------------------------------------
--------------------------------------------------------


play D and G5 until the song starts fading
Comments