Beck - Lord Only Knows Chords & Tabs

 

Lord Only Knows Chords & Tabs

Beck Chords & Tabs

Version: 1 Type: Bass Tab 0 ratings
1 star 2 stars 3 stars 4 stars 5 stars
comments

Lord Only Knows Bass Tab

Lord ONly Knows
Beck
Tabbed by Nick Key

Intro
---------------------------------------
---------------------------------------
-2-22-222--2-2-222--2-2-222--2-22-222--
---------------------------------------

Verse - 4x              ^simple fills here
----------------------------------------
---------------------------------------- 
-2-2-222-----------------------2-2-222-- 
----------4-44-444--0-0-2-4-2-----------

At end of verse, play this one time:
---------- 
---------- 
-2-22-222-
----------

Chorus
2x
---------------------------------------
---------------------------------------
---------------------2-22-222--2-22-222-
-2-22-222--2-22-222---------------------
[ Tab from: http://www.guitartabs.cc/tabs/b/beck/lord_only_knows_btab.html ]
---------------------------------------
---------------------------------------
-------------------2-22-222------------
-0-0-000--4-4-444------------4-4-444---

-----------------------------------------
-----------------------------------------
--------------------2-22-222--2-222-222--
-3-3-333--2-22-222-----------------------

Half of intro
Verse
Pre-Chorus
Chorus

Interlude
----------------------------------------
----------------------------------------
-2-22-2-5--0-00-000---------------------
---------------------2-222-222--0-0-000-

After acoustic, come in with this fill
-11-9----------------------------
------12-9-7-9-7-----------------
-----------------7h9p7-5-7--7-7--
---------------------------------

He screws around the whole time, try:

Outro
-----------------------------
-9-----777--9-------7---7-9--
---7-9--------7-7h9---9------
-----------------------------
Comments