Beck - Jack-ass Chords & Tabs

 

Jack-ass Chords & Tabs

Beck Chords & Tabs

Version: 1 Type: Tab 0 ratings
1 star 2 stars 3 stars 4 stars 5 stars
comments

Jack-ass Tab

   
beck
jack-ass
album: odelay
submitted by m. burgess


banjo accompaniment:
D-----14-----14---14-----14----14--14---2---2--2-
B---15-----15---15-----15----15--15----3--3--3---
G-14-----14----------14----14---------2--2-------
D------------------------------------------------
G------------------------------------------------

A                            D/F#  
I been drifting along in the same stale shoes
Loose ends tying the noose in the back of my mind
If you thought that you were making your way
To where the puzzles and pagans lay
I'll put it together: It's a strange invitation
[ Tab from: http://www.guitartabs.cc/tabs/b/beck/jack_ass_tab.html ]
When I wake up someone will sweep up my lazy bones
And we will rise in the cool of the evening
I remember the way that you smiled
When the gravity shackles were wild
And something is vacant when I think it's all beginning

I been drifting along in the same stale shoes
Loose ends tying the noose in the back of my mind
If you thought that you were making your way
To where the puzzles and pagans lay
I'll put it together: It's a strange invitation

----------------------------------------------------------
-------------------------------------------8-8-8/12-12-12-
-------------------------2-2-2--/4-2-0--------------------
-/4\2~-/4p2----2-----0-----------------4~--5-5-5/9--9--9--
-----------4-0---4-4--------------------------------------
----------------------------------------------------------

-------------------------------
-14---8-8-8----8-8-8-7-5-3-5-7-
------------6~-----------------
-11----------------------------etc. (it's sort of an absurd solo)
-------------------------------
-------------------------------
Comments