Beck - I Call You Love Chords & Tabs

 

I Call You Love Chords & Tabs

Beck Chords & Tabs

Version: 1 Type: Tab 0 ratings
1 star 2 stars 3 stars 4 stars 5 stars
comments

I Call You Love Tab

----------------------------------------------------------------------------
                 I Call You Love - Beck Soundrack: Keith
----------------------------------------------------------------------------Tabbed by: McTrafik
Email: grimtraffic[ed]hotmail
Tuning: Standard
Note: This is my first one and I'm not very good [yet] but this is as close as
I got and it sounds similar.
~Go BECK

[ Tab from: http://www.guitartabs.cc/tabs/b/beck/i_call_you_love_tab.html ]
e|-------------------------------------------------------------|
B|---------3-------------3-------------1-------------1---------|
G|------------0-------------0-------------0------0------0------|
D|---------------------------------2----------2----------------|
A|-----2-------------2----------3------------------------------|
E|--3-------------3--------------------------------------------|

Just repeat the above for the duration of the song.

[Leerix]:

I just found your letter
I feel your sadness once upon
And no words can say
I'm sorry

You're everything that matters
And forever I know that
If you call my name
I'll follow

In all my life
No one so real
Untainted love with you I can assend
I'll go with you [2x]

I won't go back [5x]
So don't look back
I won't go back

I can call you love
You can call me lover
You can call me love
I can call you lover

Let me call you love
Won't you call me lover?
Won't you please say "Love..."
"I Love you forever..."

Hold my hand
I'll call your name
Please take me there
No I will not look back
I'll go with you [6x]
Comments