Beck - Hell Yes Chords & Tabs

 

Hell Yes Chords & Tabs

Beck Chords & Tabs

Version: 1 Type: Bass Tab 0 ratings
1 star 2 stars 3 stars 4 stars 5 stars
comments

Hell Yes Bass Tab

Artist: Beck
Song: Hell Yes
Album: Guero
Track: 7
Tabbist: Afibassist4k

Main Riff:
G|-------------------------------|
D|----5------(6)----5------------|
A|-------------------------------|
E|-33---4466-----33---4466-(4)---|

This part can also be play like this:

G|-------------------------------|
D|----5------(6)----5------------|
A|-------------------------------|
E|-33---4566-----33---4566-(4)---|
[ Tab from: http://www.guitartabs.cc/tabs/b/beck/hell_yes_btab.html ]
Funky Part:
G|----------------------------------------------------------------------|
D|----8-6----5-3-5-----8-6----5-3-5----8-6----5-3-5---3-5---3-5---------|
A|----------------------------------------------------------------------|
E|-3------66--------3------66-------3------66-------3-----33------------| x2

("Your beat is nice")
G|---------------------|
D|---------------------|
A|-/1\---34------------|
E|---------------------| x4

Thats pretty much the whole song. werd.
Comments