Beck - Deadweight Chords & Tabs

 

Deadweight Chords & Tabs

Beck Chords & Tabs

Version: 1 Type: Bass Tab 0 ratings
1 star 2 stars 3 stars 4 stars 5 stars
comments

Deadweight Bass Tab

beck
deadweight

standard tuning

verse:

G----6----------------------------|
D------6---9----------------------|
A-------------9----7--------------|
E---------------------------------|

or:
[ Tab from: http://www.guitartabs.cc/tabs/b/beck/deadweight_btab.html ]
G----6----------------------------|
D------6---9----4---2-------------|
A---------------------------------|
E---------------------------------|

Chorus:

G----6----------------------------|
D------9---8--7--6----------------|
A-------------------7-------------|
E---------------------------------|

this song is very easy to play
enjoy yourself!!

Riccardo  Italy
Comments