Beatsteaks - Summer Chords & Tabs

 

Summer Chords & Tabs

Beatsteaks Chords & Tabs

Version: 2 Type: Tab 0 ratings
1 star 2 stars 3 stars 4 stars 5 stars
comments

Summer Tab

   
Alright im just tryin to post a better tab then the other one it just didnt
sound right. I know its not perfect but i just spent a few trying to figuer it out.

Tabbed by: Robbie Garcia

E--------------
B-9-9-9-9-9-9--
G--------------  12x
D--------------
A--------------
E--------------

E-----------------------
B-----------------------
G-6-6-6-6-6-6-x-x-x-x-x-  4x
D-6-6-6-6-6-6-x-x-x-x-x-
A-4-4-4-4-4-4-x-x-x-x-x-
E-----------------------


E---------------
B---------------
G-6-6-6-6-6-6---  8x
D-6-6-6-6-6-6---
A-4-4-4-4-4-4---
E---------------

E---------------------------------------
B---------------------------------------
G--------------------------------------- 2x
D-3-3-3-3-3--4-4-4-4-4--6-6-6-6-6-6-6-6-
A-3-3-3-3-3--4-4-4-4-4--6-6-6-6-6-6-6-6-
E-1-1-1-1-3--2-2-2-2-2--4-4-4-4-4-4-4-4-

E-----------------------
B-----------------------
G-6-6-6-6-6-6-x-x-x-x-x-  4x
D-6-6-6-6-6-6-x-x-x-x-x-
A-4-4-4-4-4-4-x-x-x-x-x-
E-----------------------
[ Tab from: http://www.guitartabs.cc/tabs/b/beatsteaks/summer_tab_ver_2.html ]
E---------------------------------------
B---------------------------------------
G--------------------------------------- 2x
D-3-3-3-3-3--4-4-4-4-4--6-6-6-6-6-6-6-6-
A-3-3-3-3-3--4-4-4-4-4--6-6-6-6-6-6-6-6-
E-1-1-1-1-3--2-2-2-2-2--4-4-4-4-4-4-4-4-

E---------------------------
B---------------------------
G-6-6-6-6-6-6--------------- 8x
D-6-6-6-6-6-6-6-6-8p6-------
A-4-4-4-4-4-4---------9-8---
E-------------------------9-

E--------------
B-9-9-9-9-9-9--
G--------------  8x
D--------------
A--------------
E--------------

E---------------------------------------
B---------------------------------------
G--------------------------------------- 6x
D-3-3-3-3-3--4-4-4-4-4--6-6-6-6-6-6-6-6-
A-3-3-3-3-3--4-4-4-4-4--6-6-6-6-6-6-6-6-
E-1-1-1-1-3--2-2-2-2-2--4-4-4-4-4-4-4-4-

E-----------------------     
B-----------------------
G-6-6-6-6-6-6-x-x-x-x-x-  4x
D-6-6-6-6-6-6-x-x-x-x-x-
A-4-4-4-4-4-4-x-x-x-x-x-
E-----------------------

E-------
B-------
G-6~----
D-6~----
A-4~----
E-------
Comments