Beatsteaks - Soothe Me Chords & Tabs

 

Soothe Me Chords & Tabs

Beatsteaks Chords & Tabs

Version: 1 Type: Tab 0 ratings
1 star 2 stars 3 stars 4 stars 5 stars
comments

Soothe Me Tab

-----------------------------------------------------------------------------
			     Soothe Me - Beatsteaks
-----------------------------------------------------------------------------
Tabbed by: Isaac Yankeem Steffenboytoyboy

Tuning: i alway play standard tuning on my acoustic guitar and it sound nice, but the
beatsteaks are using a special tuning like DAFCGD or something for this song

Intro:
e|--------------------------------------------------------------------------|
B|---5---3---5---3---3---------3-------3------------1---0---1---0---0-------|
G|-5---5---5---5---5-------4-------4-------4------2---2---2---2---2---------|
D|---------------------------2---2---2---2---2---------------------------9--|
A|---------------------------------------------0~---------------------------|
E|----------------------0~--------------------------------------------0~----|

e|--------------------------------------------------------------------------|
B|-8------8-------8~--------------------------------------------------------|
G|---9------9-----9~--------------------------------------------------------|
D|-----9-----(9)--9~--------------------------------------------------------|
A|--------------------------------------------------------------------------|
E|--------------------------------------------------------------------------|

Verse:
e|--------------------------------------------------------------|
B|--------------------------------------------------------------|
G|-(5)...........---------------(2)-----------------------------| 2X
D|--5 a few times(2).............2.............(2).............-|
A|--3.............2..............0..............2..............-|
E|----------------0..............---------------0..............-|
[ Tab from: http://www.guitartabs.cc/tabs/b/beatsteaks/soothe_me_tab.html ]
an than (lyrics "what i never dare to say...)
e|--------------------------------------------------------------------------|
B|--------------------------------------------------------------------------|
G|--------------------------------------------------------------------------|
D|-3~--------------------------------3............~-------------------------|
A|-3~maybe twice, if you like to-----3 a few times~-------------------------|
E|-1~--------------------------------1............~-------------------------|

- play Intro again -

- play Verse once again with full chords and the first powerchord with barré on 3, 
much better -

than use these chords:
e|-1---0--(3)--3-|
B|-1---3---3---3-|
G|-1---2---0---0-|
D|-3---0---2---0-|
A|-3---0---3---2-|
E|-1--(0)-(0)--3-|

and on the "uh uh uh" part with the solo (which i didn't tab out yet, maybe later) use 
these chords...
e|-1--(3)--3-|
B|-1---3---3-|
G|-1---0---0-|  4x
D|-3---2---0-|
A|-3---3---2-|
E|-1--(0)--3-|

- now this "full chords verse" again -

and after that, these chords again:
e|-1---0--(3)--3-|
B|-1---3---3---3-|
G|-1---2---0---0-|
D|-3---0---2---0-|
A|-3---0---3---2-|
E|-1--(0)-(0)--3-|

end on this:
e|----|
B|----|
G|----|
D|-5~-|
A|-3~-|
E|-1~-|


Lyrics:

you can't keep what you've got
and I sold what I owned
if you come in from the cold
I'll warm you up and we'll take it slow

what I never dare to say

the sun comes up gives me a hug
tellin' me not move to much

we've got all the time we need
our plans to succed

what I never dare to say
I'm pretty sure you know it anyway
soothe me everyday
soothe me everyday

uh uh uh....

you can't keep what you've got
and I sold what I owned
("uh uh uh"-background)

what I never dare to say
I'm pretty sure you know it anyway
soothe me everyday
soothe me everyday


that's it! nice and pretty easy song. listen to it to get the rhythm. enjoy...beatsteaks 
a very great german band...
Comments