Beatsteaks - Kings Of Metal Chords & Tabs

 

Kings Of Metal Chords & Tabs

Beatsteaks Chords & Tabs

Version: 1 Type: Tab 0 ratings
1 star 2 stars 3 stars 4 stars 5 stars
comments

Kings Of Metal Tab

Beatsteaks - Kings Of Metal

2x Intro (Clean Sound)

e|--------------|------------------|------------------|------------------|
B|--------------|------------------|------------------|------------------|
G|-8---8--8-----|-7-7---7------(77)|---4---4--4-------|------------------|
D|-8---8--8-----|-8-8---8------(88)|---4---4--4-------|-6-6---6-----(646)|
A|-6---6--6-----|-5-5---5------(55)|---2---2--2-------|-6-6---6-----(646)|
E|--------------|-x-x---x-------xx-|------------------|-4-4---4-----(424)|

1st Part (Clean Sound)

e|-------------4x|
B|---------------|
G|-8---7---4-----|
D|-8---8---4---6-|
A|-6---5---2---6-|
E|-------------4-|

Bridge

E|--------------------------------|
B|--------------------------------|
G|-10--8---10--8---10--8---10-----|
D|-10--8---10--8---10--8---10-----|
A|-8---6---8---6---8---6---8------|
E|--------------------------------|
[ Tab from: http://www.guitartabs.cc/tabs/b/beatsteaks/kings_of_metal_tab.html ]
2x Refrain

e|---------------|
B|---------------|
G|-8-------4---6-|
D|-8---4---4---6-|
A|-6---4---2---4-|
E|-----2---------|



Solo Riff

e|-----------------------------------------------------------|
B|-----------------------------------------------------------|
G|----------11-13b13-----11-10-11----------11----------11----|
D|----11-13-----------------------13-11-13----13-11-13----13-|
A|-13--------------------------------------------------------|
E|-----------------------------------------------------------|

E|-----------------------------------------------------------|
B|-----------------------------------------------------------|
G|-----------------------------------------------------------|
D|-11-13-----------------------------------------------------|
A|----------11-13---------------repeat and fade out----------|
E|----------------14-----------------------------------------|
Comments