Beatsteaks - House On Fire Chords & Tabs

 

House On Fire Chords & Tabs

Beatsteaks Chords & Tabs

Version: 1 Type: Tab

House On Fire Tab

Artist: Beatsteaks
Track: House On Fire
Album: Boombox
Tabbed By: Gordriani
Tuning: Standard

I haven't included exactly how many times to play each note. Listen to the song for that.
Also, there are some lead parts missing from the verses, but it's something to go on.

Intro - Guitar 1:
e-----------------|
b--8--7--13--12---|
g--9--7--14--12---|
d--9--7--14--12---|
a--7--7--12--12---|
e-----------------|

Intro/Verse - Guitar 2:
e-------------|
b-------------|
g--9--7-------|
d--9--7--7--5-|
a--7--5--7--5-|
e--------5--3-|
[ Tab from: http://www.guitartabs.cc/tabs/b/beatsteaks/house_on_fire_tab.html ]
Pre-chorus:
e------------|
b------------|
g--9--7------|
d--9--7--9---|
a--7--5--9---|
e--------7---|

Chorus part one:
e--------------|
b--------------|
g-----7-----9--|
d--7--7--5--9--|
a--7--5--5--7--|
e--5-----3-----|

Chorus part 2:
e--------|
b--------|
g--5--7--|
d--5--7--|
a--3--5--|
e--------|

Lead guitar after chorus are variations of these notes:
e---------------------|
b---------------------|
g--9-9-7--------------|
d--------9-7-5-7-9-7--|
a---------------------|
e---------------------|

I think that should cover it.