Beatsteaks - Aint Complaining Chords & Tabs

 

Aint Complaining Chords & Tabs

Beatsteaks Chords & Tabs

Version: 1 Type: Tab 0 ratings
1 star 2 stars 3 stars 4 stars 5 stars
comments

Aint Complaining Tab

   
-------------------------------------------------------------------------------
			   AIN'T COMPLAINING - Beatsteaks
-------------------------------------------------------------------------------

Tabbed by: strungout777
Email: manuel_ramones4life@gmx.at

Tuning: eb Bb Gb Db Ab eb

Intro:
Guitar1
e|----------------------------|
B|----------------------------|
G|-------------------77777777-|
D|-77777777-33333333-77777777-|
A|-77777777-33333333-55555555-|
E|-55555555-11111111-55555555-|

Verse1:
Guitar1
e|-----------------------------------------------------------------------000-|
B|-----------------------------------------------------------------------000-|
G|-----------------------------------------------------------------------xxx-|
D|-7-76-4---9-97-2---7-76-4---9-97-2---7-76-4---9-97-2---7-76-4---9-97-22222-|
A|-7-76-4---9-97-2---7-76-4---9-97-2---7-76-4---9-97-2---7-76-4---9-97-22222-|
E|-5-54-2---7-75-0---5-54-2---7-75-0---5-54-2---7-75-0---5-54-2---7-75-00000-|

Chorus:
Guitar1
e|---------------------------------------------------|
B|---------------------------------------------------|
G|-77777777-666-444-222-4-6-77777777-------------4-6-|
D|-77777777-666-444-222-4-6-77777777-444-555-777-4-6-|
A|-55555555-444-222-000-2-4-55555555-444-777-777-2-4-|
E|-55555555-----------------55555555-222-777-555-----|

e|----------------------------------|
B|----------------------------------|
G|-7777-9999-1111111111111111-7777~-|
D|-7777-9999-1111111111111111-7777~-|
A|-5555-7777--9-9-9-9-9-9-9-9-5555~-|
E|----------------------------------|

Verse2:
Guitar1
e|-----------------------------------0~-------2~-------0~-------2~-------000-|
B|-----------------------------------0~-------2~-------0~-------2~-------000-|
G|-----------------------------------1~-------2~-------1~-------2--------111-|
D|-7-76-4---9-97-2---7-76-4---9-97-2---7-76-4---9-97-2---7-76-4---9-97-22222-|
A|-7-76-4---9-97-2---7-76-4---9-97-2---7-76-4---9-97-2---7-76-4---9-97-22222-|
E|-5-54-2---7-75-0---5-54-2---7-75-0---5-54-2---7-75-0---5-54-2---7-75-00000-|
[ Tab from: http://www.guitartabs.cc/tabs/b/beatsteaks/aint_complaining_tab.html ]
Chorus2:
Guitar1
e|---------------------------------------------------|
B|---------------------------------------------------|
G|-77777777-666-444-222-4-6-77777777-------------4-6-|
D|-77777777-666-444-222-4-6-77777777-444-555-777-4-6-|
A|-55555555-444-222-000-2-4-55555555-444-777-777-2-4-|
E|-55555555-----------------55555555-222-777-555-----|

e|-----------------------------------|
B|-----------------------------------|
G|-7777-9999-1111111111111111-777777-|
D|-7777-9999-1111111111111111-777777-|
A|-5555-7777--9-9-9-9-9-9-9-9-555555-|
E|-----------------------------------|

Bridge:
Guitar1
e|----------------------------|
B|----------------------------|
G|----------------------------|
D|-------------------77777777-|
A|-77777777-33333333-55555555-|
E|-55555555-11111111----------|
   xxxxxxxx xxxxxxxx xxxxxxxx

e|-----------2222-------------0000-------------2222-------------0000-|
B|-----------2222-------------0000-------------2222-------------0000-|
G|-----------2222-------------1111-------------2222-------------1111-|
D|-777-666-4-4444---999-777-2-2222---777-666-4-4444---999-777-2-2222-|
A|-777-666-4-4444---999-777-2-2222---777-666-4-4444---999-777-2-2222-|
E|-555-444-2-2222---777-555-0-0000---555-444-2-2222---777-555-0-0000-|

Chorus3:
Guitar1
e|---------------------------------------------------|
B|---------------------------------------------------|
G|-77777777-666-444-222-4-6-77777777-------------4-6-|
D|-77777777-666-444-222-4-6-77777777-444-555-777-4-6-|
A|-55555555-444-222-000-2-4-55555555-444-777-777-2-4-|
E|-55555555-----------------55555555-222-777-555-----|

e|-----------------------------------|
B|-----------------------------------|
G|-7777-9999-1111111111111111-7777~--|
D|-7777-9999-1111111111111111-7777~--|
A|-5555-7777--9-9-9-9-9-9-9-9-5555~--|
E|-----------------------------------|

Outro:
Guitar1:
e|-------222------000------222-----0~-----|
B|-------222------000------222-----0~-----|
G|-------222------111------222-----1~-----|
D|-7-76-4~--9-97-2~--7-76-4~--9-97-2~--7b-|
A|-7-76-4~--9-97-2~--7-76-4~--9-97-2~--7b-|
E|-5-54-2~--7-75-0~--5-54-2~--7-75-0~--5--|

Listen to the song to get out the rhythm!
BEATSTEAKS4LIFE!!!!!!!!!!!!!!!
| /  slide up
| \  slide down
| h  hammer-on
| p  pull-off
| ~  let ring
| +  harmonic
| x  Mute note
===============================================================================
Comments