Beatles - Youve Got To Hide Your Love Away Chords & Tabs

 

Youve Got To Hide Your Love Away Chords & Tabs

Beatles Chords & Tabs

Version: 3 Type: Tab 0 ratings
1 star 2 stars 3 stars 4 stars 5 stars
comments

Youve Got To Hide Your Love Away Tab

   
 --------------------------------------------------------------------

 THE BEATLES - YOU'VE GOT TO HIDE YOUR LOVE AWAY (Lennon & McCartney)
               From HELP album. Released on August, 6th, 1965.

 --------------------------------------------------------------------

  Tabbed by PJVillanueva






  Here I stand head in hand
  Turn my face to the wall
  If she's gone I can't go on
  Feelin' two-foot small

  Everywhere people stare
  Each and every day
  I can see them laugh at me
  And I hear them say

  Hey you've got to hide your love away
  Hey you've got to hide your love away

  How could I even try
  I can never win
  Hearing them, seeing them
  In the state I'm in

  How could she say to me
  Love will find a way
  Gather round all you clowns
  Let me hear you say

  Hey you've got to hide your love away
  Hey you've got to hide your love away




  12/8


                            Verse 1

  G                                      Dsus4
e|3----333---- 3---3---3---|3----333---- 3----333----|
B|3----333-----3---3---3---|3----333-----3----333----|
G|0----000-----0---0---0---|0----000-----2----222----|
D|0----000-----0---0---0---|0----000-----0----000----|
A|2----222-----2---2---2---|2----222-----------------|
E|3----333-----3---3---3---|3----333-----------------|


 
  F9      C    G            C           Csus2 C
e|3---3---3--- 3----333----|3----333---- 3----333----|
B|1---1---1----3----333----|1----111-----1----111----|
G|2---2---0----0----000----|0----000-----0----000----|
D|3---3---2----0----000----|2----222-----0-2--222----|
A|-------------2----222----|3----333-----3----333----|
E|-------------3----333----|-------------------------|



  F9           C            G            Dsus4
e|3----333---- 3----333----|3----333---- 3----333----|
B|1----111-----1----111----|3----333-----3----333----|
G|2----222-----0----000----|0----000-----2----222----|
D|3----333-----2----222----|0----000-----0----000----|
A|-------------3----333----|2----222-----------------|
E|-------------------------|3----333-----------------|



  F9      C    G            C           Csus2 C
e|3---3---3--- 3----333----|3----333---- 3----333----|
B|1---1---1----3----333----|1----111-----1----111----|
G|2---2---0----0----000----|0----000-----0----000----|
D|3---3---2----0----000----|2----222-----0-2--222----|
A|-------------2----222----|3----333-----3----333----|
E|-------------3----333----|-------------------------|



  F9           C            D           Dsus4 D
e|3----333---- 3----333----|2----222---- 2----333----|
B|1----111-----1----111----|3----333-----3----333----|
G|2----222-----0----000----|2----222-----0-2--222----|
D|3----333-----2----222----|0----000-----0----000----|
A|-------------3----333----|-------------------------|
E|-------------------------|-------------------------|





  Verse 2


  G            Dsus4
e|3----333---- 3----333----|
B|3----333-----3----333----|
G|0----000-----2----222----|
D|0----000-----0----000----|
A|2----222-----------------|
E|3----333-----------------|


 
  F9      C    G            C           Csus2 C
e|3---3---3--- 3----333----|3----333---- 3----333----|
B|1---1---1----3----333----|1----111-----1----111----|
G|2---2---0----0----000----|0----000-----0----000----|
D|3---3---2----0----000----|2----222-----0-2--222----|
A|-------------2----222----|3----333-----3----333----|
E|-------------3----333----|-------------------------|



  F9           C            G            Dsus4
e|3----333---- 3----333----|3----333---- 3----333----|
B|1----111-----1----111----|3----333-----3----333----|
G|2----222-----0----000----|0----000-----2----222----|
D|3----333-----2----222----|0----000-----0----000----|
A|-------------3----333----|2----222-----------------|
E|-------------------------|3----333-----------------|



  F9      C    G            C           Csus2 C
e|3---3---3--- 3----333----|3----333---- 3----333----|
B|1---1---1----3----333----|1----111-----1----111----|
G|2---2---0----0----000----|0----000-----0----000----|
D|3---3---2----0----000----|2----222-----0-2--222----|
A|-------------2----222----|3----333-----3----333----|
E|-------------3----333----|-------------------------|



  F9           C            D            D7
e|3----333---- 3----333----|2----222---- 2----333----|
B|1----111-----1----111----|3----333-----3----333----|
G|2----222-----0----000----|2----222-----2----222----|
D|3----333-----2----222----|0------------------------|
A|-------------3----333----|-------------3-----------|
E|-------------------------|-------------------------|




  D
e|2----222---- 2---2---2---|
B|3----333-----3---3---3---|
G|2----222-----2---2---2---|
D|-------------0-----------|
A|2------------0-----------|
E|-------------------------|




  Chorus


  G                         C   
e|3----333---- 3---3---3---|3----333---- 3---3---3---|
B|3----333-----3---3---3---|1----111-----1---1---1---|
G|0----000-----0---0---0---|0----000-----0---0---0---|
D|0----000-----0---0---0---|2----222-----2---2---2---|
A|2----222-----2---0---2---|3----333-----3---3---3---|
E|3------------3-----------|-------------------------|


 

  Dsus4        D            Dsus2          D
e|3----333---- 2----222----|0----000---- 0-2--222----|
B|3----333-----3----333----|3----333-----3----333----|
G|2----222-----2----222----|2----222-----2----222----|
D|0------------0-----------|0------------0-----------|
A|-------------------------|-------------------------|
E|-------------------------|-------------------------|



  G                         C
e|3----333---- 3---3---3---|3----333---- 3---3---3---|
B|3----333-----3---3---3---|1----111-----1---1---1---|
G|0----000-----0---0---0---|0----000-----0---0---0---|
D|0----000-----0---0---0---|2----222-----2---2---2---|
A|2----222-----2---0---2---|3----333-----3---3---3---|
E|3------------3-----------|-------------------------|


 

  Dsus4        D            Dsus2          D
e|3----333---- 2----222----|0----000---- 0-2--222----|
B|3----333-----3----333----|3----333-----3----333----|
G|2----222-----2----222----|2----222-----2----222----|
D|0------------0-----------|0------------0-----------|
A|-------------------------|-------------------------|
E|-------------------------|-------------------------|





  Verse 3


  G            Dsus4
e|3----333---- 3----333----|
B|3----333-----3----333----|
G|0----000-----2----222----|
D|0----000-----0----000----|
A|2----222-----------------|
E|3----333-----------------|


 
  F9      C    G            C           Csus2 C
e|3---3---3--- 3----333----|3----333---- 3----333----|
B|1---1---1----3----333----|1----111-----1----111----|
G|2---2---0----0----000----|0----000-----0----000----|
D|3---3---2----0----000----|2----222-----0-2--222----|
A|-------------2----222----|3----333-----3----333----|
E|-------------3----333----|-------------------------|



  F9           C            G            Dsus4
e|3----333---- 3----333----|3----333---- 3----333----|
B|1----111-----1----111----|3----333-----3----333----|
G|2----222-----0----000----|0----000-----2----222----|
D|3----333-----2----222----|0----000-----0----000----|
A|-------------3----333----|2----222-----------------|
E|-------------------------|3----333-----------------|


[ Tab from: http://www.guitartabs.cc/tabs/b/beatles/youve_got_to_hide_your_love_away_tab_ver_3.html ]
  F9      C    G            C           Csus2 C
e|3---3---3--- 3----333----|3----333---- 3----333----|
B|1---1---1----3----333----|1----111-----1----111----|
G|2---2---0----0----000----|0----000-----0----000----|
D|3---3---2----0----000----|2----222-----0-2--222----|
A|-------------2----222----|3----333-----3----333----|
E|-------------3----333----|-------------------------|



  F9           C            D           Dsus2 D
e|3----333---- 3----333----|2----222---- 2----333----|
B|1----111-----1----111----|3----333-----3----333----|
G|2----222-----0----000----|2----222-----0-2--222----|
D|3----333-----2----222----|0----000-----0----000----|
A|-------------3----333----|-------------------------|
E|-------------------------|-------------------------|





  Verse 4

  G            Dsus4
e|3----333---- 3----333----|
B|3----333-----3----333----|
G|0----000-----2----222----|
D|0----000-----0----000----|
A|2----222-----------------|
E|3----333-----------------|


 
  F9      C    G            C           Csus2 C
e|3---3---3--- 3----333----|3----333---- 3----333----|
B|1---1---1----3----333----|1----111-----1----111----|
G|2---2---0----0----000----|0----000-----0----000----|
D|3---3---2----0----000----|2----222-----0-2--222----|
A|-------------2----222----|3----333-----3----333----|
E|-------------3----333----|-------------------------|



  F9           C            G            Dsus4
e|3----333---- 3----333----|3----333---- 3----333----|
B|1----111-----1----111----|3----333-----3----333----|
G|2----222-----0----000----|0----000-----2----222----|
D|3----333-----2----222----|0----000-----0----000----|
A|-------------3----333----|2----222-----------------|
E|-------------------------|3----333-----------------|



  F9      C    G            C           Csus2 C
e|3---3---3--- 3----333----|3----333---- 3----333----|
B|1---1---1----3----333----|1----111-----1----111----|
G|2---2---0----0----000----|0----000-----0----000----|
D|3---3---2----0----000----|2----222-----0-2--222----|
A|-------------2----222----|3----333-----3----333----|
E|-------------3----333----|-------------------------|



  F9           C            D            D7
e|3----333---- 3----333----|2----222---- 2----333----|
B|1----111-----1----111----|3----333-----3----333----|
G|2----222-----0----000----|2----222-----2----222----|
D|3----333-----2----222----|0------------------------|
A|-------------3----333----|-------------3-----------|
E|-------------------------|-------------------------|




  D
e|2----222---- 2---2---2---|
B|3----333-----3---3---3---|
G|2----222-----2---2---2---|
D|-------------0-----------|
A|2------------0-----------|
E|-------------------------|




  Chorus


  G                         C
e|3----333---- 3---3---3---|3----333---- 3---3---3---|
B|3----333-----3---3---3---|1----111-----1---1---1---|
G|0----000-----0---0---0---|0----000-----0---0---0---|
D|0----000-----0---0---0---|2----222-----2---2---2---|
A|2----222-----2---0---2---|3----333-----3---3---3---|
E|3------------3-----------|-------------------------|
 



  Dsus4        D            Dsus2          D
e|3----333---- 2----222----|0----000---- 0-2--222----|
B|3----333-----3----333----|3----333-----3----333----|
G|2----222-----2----222----|2----222-----2----222----|
D|0------------0-----------|0------------0-----------|
A|-------------------------|-------------------------|
E|-------------------------|-------------------------|



  G                         C
e|3----333---- 3---3---3---|3----333---- 3---3---3---|
B|3----333-----3---3---3---|1----111-----1---1---1---|
G|0----000-----0---0---0---|0----000-----0---0---0---|
D|0----000-----0---0---0---|2----222-----2---2---2---|
A|2----222-----2---0---2---|3----333-----3---3---3---|
E|3------------3-----------|-------------------------|


 

  Dsus4        D            Dsus2          D
e|3----333---- 2----222----|0----000---- 0-2--222----|
B|3----333-----3----333----|3----333-----3----333----|
G|2----222-----2----222----|2----222-----2----222----|
D|0------------0-----------|0------------0-----------|
A|-------------------------|-------------------------|
E|-------------------------|-------------------------|




  Ending flute solo


  G            Dsus4
e|3----333---- 3----333----|
B|3----333-----3----333----|
G|0----000-----2----222----|
D|0----000-----0----000----|
A|2----222-----------------|
E|3----333-----------------|
 
e|------------ ------------|
B|------------------------4/
G|0------------2-----------|
D|-------------------------|
A|-------------------------|
E|-------------------------|



  F9      C    G            C           Csus2 C
e|3---3---3--- 3----333----|3----333---- 3----333----|
B|1---1---1----3----333----|1----111-----1----111----|
G|2---2---0----0----000----|0----000-----0----000----|
D|3---3---2----0----000----|2----222-----0-2--222----|
A|-------------2----222----|3----333-----3----333----|
E|-------------3----333----|-------------------------|

e|------------ ------------|------------ ------------|
B|5------------------------|-------------------------|
G|-----------3/4-3-2-0-----|0------------2---0-------|
D|-------------------------|-------------------------|
A|-------------------------|-------------------------|
E|-------------------------|-------------------------|



  F9           C            G            Dsus4
e|3----333---- 3----333----|3----333---- 3----333----|
B|1----111-----1----111----|3----333-----3----333----|
G|2----222-----0----000----|0----000-----2----222----|
D|3----333-----2----222----|0----000-----0----000----|
A|-------------3----333----|2----222-----------------|
E|-------------------------|3----333-----------------|

e|------------ ------------|------------ ------------|
B|3---1--------------------|------------------------4/
G|---------------3/4---2---|0------------2-----------|
D|-------------------------|-------------------------|
A|-------------------------|-------------------------|
E|-------------------------|-------------------------|



  F9      C    G            C           Csus2 C
e|3---3---3--- 3----333----|3----333---- 3----333----|
B|1---1---1----3----333----|1----111-----1----111----|
G|2---2---0----0----000----|0----000-----0----000----|
D|3---3---2----0----000----|2----222-----0-2--222----|
A|-------------2----222----|3----333-----3----333----|
E|-------------3----333----|-------------------------|

e|------------ ------------|------------ ------------|
B|5------------------------|-------------------------|
G|-------------2/4\2---0---|0------------2---0-------|
D|-------------------------|-------------------------|
A|-------------------------|-------------------------|
E|-------------------------|-------------------------|


                           (.
  F9           C            G
e|3----333---- 3---3---3---|3------------------------|
B|1----111-----1---1---1---|3------------------------|
G|2----222-----0---0---0---|0------------------------|
D|3----333-----2---2---2---|0------------------------|
A|-------------3---3---3---|2------------------------|
E|-------------------------|3------------------------|

e|------------ ------------|------------ ------------|
B|3------------------------|-------------------------|
G|----5------------4/5-4/5-|7------------------------|
D|-------------------------|-------------------------|
A|-------------------------|-------------------------|
E|-------------------------|-------------------------|








        B  Bend
        R  Release
        /  Slide up
        \  Slide down
        H  Hammer-on
        P  Pull-off
        ~  Vibrato
        +  Harmonic
        x  Mute note
        .  Play note like a dot in standard notation
        ^  Ties two notes together
        (. Pause



Comments