Beatles - Youve Got To Hide Your Love Away Chords & Tabs

 

Youve Got To Hide Your Love Away Chords & Tabs

Beatles Chords & Tabs

Version: 3 Type: Chords 0 ratings
1 star 2 stars 3 stars 4 stars 5 stars
comments

Youve Got To Hide Your Love Away Chords

   
Hey guys heres my tab for youve got to hide your love away enjoy

 G     Am     C       G     C                   F    C
 3------0-----0-------3-----0-------------------1----0---------|
 0------1-----1-------0-----1-------------------1----1---------|
 0------2-----0-------0-----0-------------------2----0---------|
 0------2-----2-------0-----2-------------------3----2---------|
 2------0-----3-------2-----3-------------------x----3---------|
 3------x-----x-------3-----x-------------------x----x---------|
[ Tab from: http://www.guitartabs.cc/tabs/b/beatles/youve_got_to_hide_your_love_away_crd_ver_3.html ]
1Here I stand head in hand, turn my face to the wall
2Everywhere   people stare  each    and  every  day
  G       Am     C        G   C               F  C  D
 -3--------0-----0--------3---0---------------1--0--2----------|
 -0--------1-----1--------0---1---------------1--1--3----------|
 -0--------2-----0--------0---0---------------2--0--2----------|
 -0--------2-----2--------0---2---------------3--2--0----------|
 -2--------0-----3--------2---3---------------x--3--x----------|
 -3--------x-----x--------3---x---------------x--x--x----------|

 1If shes gone I cant go on, feeling two foot small
 2I can here them laugh at me and I here them say
  G                C
 -3----------------0---------------3---2---0---2--------------|
 -0----------------1---------------0---0---0---0--------------|
 -0----------------0---------------2---2---2---2--------------|
 -0----------------2---------------0---0---0---0--------------|
 -2----------------3---------------x---x---x---x--------------|
 -3----------------x---------------x---x---x---x--------------|
 Hey youve got to hide your love away
 Hey youve got to hide your love away

  How can I even try, I can never win
  Hearing them seeing them in the state I'm in
  How could she say to me love will find away
  Gather round all you clown, let me hear you say


  Well there it is pretty easy, at the end of the chorusI played that one time and it 
exactly alike to the song if you listen, but im not sure of the chords, anyway give it a 
and see what you think, thanks ~Brandon
Comments