Beatles - Youve Got To Hide Your Love Away Chords & Tabs

 

Youve Got To Hide Your Love Away Chords & Tabs

Beatles Chords & Tabs

Version: 11 Type: Chords 0 ratings
1 star 2 stars 3 stars 4 stars 5 stars
comments

Youve Got To Hide Your Love Away Chords

   
Since I haven't seen any of the correct ones, I suppose I'll post it.


INTRO: G G


VERSE 1:


G      Dsus4 Fsus2 C  G     C                  Fsus2   C
Here I stand head in hand, turn my face to the wall

G        Dsus4  Fsus2  C G   C                Fsus2  C/E D5 D
If she's gone I can't go on, feeling two foot small

G    Dsus4 Fsus2  C  G     C                Fsus2  C
Everywhere peo---ple stare each and every way

G    Dsus4     Fsus2 C  G    C             Fsus2 C/E  D Cadd9 G/B A7sus2
I can see them laugh at me, and I hear them say  ay  ay


This is the tricky part, so I figured I should tab it out for you.. its the emphasis on 
bass notes. It starts RIGHT after the last "ay"


     Cadd9      G/B      A7sus2
|---3-3-3-3---3-3-3-3---3-3-3-3-|
|---3-3-3-3---3-3-3-3---3-3-3-3-|
|-0-0-0-0-0-0-0-0-0-0-0-0-0-0-0-|
|-2-2-2-2-2-0-0-0-0-0-2-2-2-2-2-|
|-3-3-3-3-3-2-2-2-2-2-0-0-0-0-0-|
|-------------------------------|

CHORUS:


G                  Cadd9                     Dsus4  D  Dadd9  D
Hey! You've got to hide your love away...

G                  Cadd9                     Dsus4  D  Dadd9  D
Hey! You've got to hide your love away...

Now, the chorus has the same kind of bass emphasis..

[ Tab from: http://www.guitartabs.cc/tabs/b/beatles/youve_got_to_hide_your_love_away_crd_ver_11.html ]
  G                      Cadd9              Dsus4/A  Dsus4 D Dadd9 D
|-3--3-3-3-3------------------3-3-3-3----------3-----|
|-3--3-3-3-3------------------3-3-3-3----------3-----|
|-0--0-0-0-0---------------0--0-0-0-0----------2-----|
|-0--0-0-0-0-------0---0---2--2-2-2-2--2---2---0-----|
|-2--2-2-2-2---2---0---2---3--3-3-3-3--3---0---0-----|
|-3--3-3-3-3---3-------------------------------------|
 Hey!       You've got to hide your   love a--way


Just so you know, I only put the Dsus4/A up there because the note on the fifth string 
only played for the first strum. The rest of that part is played as shown.


VERSE 2:

G     Dsus4 Fsus2 C  G     C           Fsus2 C
How can I---- e--ven try,  I can never win

G       Dsus4 Fsus2  C   G   C                Fsus2  C/E D5 D
Hearing them,  see--ing them in the state I'm in

G        Dsus4  Fsus2 C G   C                 Fsus2 C
How could she--- say to me love will find a way?

G     Dsus4 Fsus2 C  G        C             Fsus2 C/E  D Cadd9 G/B A7sus2
Gather round all you clowns, let me hear you say  ay  ay


     Cadd9      G/B      A7sus2
|---3-3-3-3---3-3-3-3---3-3-3-3-|
|---3-3-3-3---3-3-3-3---3-3-3-3-|
|-0-0-0-0-0-0-0-0-0-0-0-0-0-0-0-| Yes, you play this again, after the last ay
|-2-2-2-2-2-0-0-0-0-0-2-2-2-2-2-|
|-3-3-3-3-3-2-2-2-2-2-0-0-0-0-0-|
|-------------------------------|


CHORUS:


G                  Cadd9                     Dsus4  D  Dadd9  D
Hey! You've got to hide your love away...

G                  Cadd9                     Dsus4  D  Dadd9  D
Hey! You've got to hide your love away...


  G                      Cadd9              Dsus4/A  Dsus4 D Dadd9 D
|-3--3-3-3-3------------------3-3-3-3----------3-----|
|-3--3-3-3-3------------------3-3-3-3----------3-----|
|-0--0-0-0-0---------------0--0-0-0-0----------2-----| You play this again,
|-0--0-0-0-0-------0---0---2--2-2-2-2--2---2---0-----|        too.
|-2--2-2-2-2---2---0---2---3--3-3-3-3--3---0---0-----|
|-3--3-3-3-3---3-------------------------------------|
 Hey!       You've got to hide your   love a--way

THERE YOU GO!

Hopefully you like it.
Comments