Beatles - You Wont See Me Chords & Tabs

 

You Wont See Me Chords & Tabs

Beatles Chords & Tabs

Version: 1 Type: Bass Tab 0 ratings
1 star 2 stars 3 stars 4 stars 5 stars
comments

You Wont See Me Bass Tab

You won't see me / The Beatles
Lennon & Mc Cartney

Slight variations and a lot of swing.

     Intro:
G---------------------------------------------------------
D------4--7-----7--4--2-----4--7-----7--4--2--------------
A---5--------------------5--------------------5--2--1-----
E------------5--------------------5--------------------0--

When I call you up your line's engaged.

G---||------------------------------------------------------7-----------
D---||*-----------7--4-----------------9--------------4--7-----7--4-----
A---||*-----4--7--------7--4-----6--9-----9--6-----5--------------------
E---||---5--------------------7-----------------7-----------------------
                       2x                                               
G----------------------|
D---------------7--4--*|       
A---5-----4--7--------*| 
E------5---------------| 
[ Tab from: http://www.guitartabs.cc/tabs/b/beatles/you_wont_see_me_btab.html ]
    We have lost the time that was so hard to find,
G---------------------------------7-----------------7-------------------
D------------7--4-----------4--7-----7--4-----4--7-----7--4-------------
A------4--7--------7--4--5-----------------5-----------------5-----4----
E---5-----------------------------------------------------------5-------

G-----------------------------------------------------------------------
D------7--4-----------------7--4-----------------9--------------4--7----
A---7--------7--4-----4--7--------7--4-----6--9-----9--6--5--5----------
E------------------5--------------------7-------------------------------

G------------------------------|
D------7--6--4--2-----4--7-----| 
A------------------5-----------| 
E---5-----------------------5--| 

     Time after time you refuse to even listen
G-----------------------------------------------------------------------
D-----------------------------------------------------------------------
A---2--2--------0--1--2--2--------0--2--5--5--------2--2----------------
E---------2--2--------------2--2--------------5--5--------5--5--5--5----

G------------------------------------2--2--2--2--2-----0--------| 
D---------2--2--------0--2--2--2--2-----------------------3--2--| 
A---------------2--2--------------------------------------------| 
E---5--5--------------------------------------------------------|
Comments