Beatles - You Really Got A Hold On Me Chords & Tabs

 

You Really Got A Hold On Me Chords & Tabs

Beatles Chords & Tabs

Version: 3 Type: Bass Tab 0 ratings
1 star 2 stars 3 stars 4 stars 5 stars
comments

You Really Got A Hold On Me Bass Tab

G--------------------------|------------------------|
D-----7-----7-6-4------4---|---7-----7-6-4------4---|
A-------4-7--------4-4---7-|-----4-7--------4-4---7-|
E---5----------------------|-5----------------------|

G----------------------------------------------------|
D-----7--------4-6-7--7------7-6-4-4-------4-4---4---|
A-------4-7--7----------4-7----------4-4-7-----4---7-|
E---5------------------------------------------------|

G-------------------------------------------------------------|
D-----7----------------4-7---------4------4-6----7--------4-6-|
A-------4-7--0-2-4-5-5------5-4------7--7----------4-7--7-----|
E---5---------------------------7--------------5--------------|

G-------------------------------------|
D-----7------7-6-4-4-------4-4---4-4--|
A-------4-7----------4-4-7-----4------|
E---5---------------------------------|

G---------------------------------------------------|
D-----7------------7------------4-4-------4-4-------|
A-------4-7-4-7------4-7----4-7-----4-4-7-----4-4-7-|
E---5------------5--------5-------------------------|

G-------------------------------------------------------------|
D----------------------4-7---------4------4-6----7--------4-6-|
A-------4-7--0-2-4-5-5------5-4------7--7----------4-7--7-----|
E---5-5-------------------------7--------------5--------------|
[ Tab from: http://www.guitartabs.cc/tabs/b/beatles/you_really_got_a_hold_on_me_btab_ver_3.html ]
G------------------------------------|
D-----7------7-6-4-4-------4-4---4---|
A-------4-7----------4-4-7-----4---4-|
E---5--------------------------------|

G--------------------------------------|
D-----7--------------4-7-4--7--7--7----|
A-------4-7-4-7--5-5-----------------7-|
E---5----------------------------------|

G---------------------|-------------------|
D---------4-----4-----|-------4-----4-----|
A-----7-4---7-4---7---|---7-4---7-4---7---|
E---5---------------5-|-5---------------5-|

G-------------------------------------------------------|
D-----7--------4-6----7-------------4-4-------4-4---4---|
A-------4-7--7----------4-7-------------4-4-7-----4---7-|
E---5---------------5--------5-7-5----------------------|

G-----------------------------------------------------|
D-----7----------------4-7--------4---------------4-6-|
A-------4-7--0-2-4-5-5-----5-4------7/12---4-7--7-----|
E---5--------------------------7---------5------------|

G------------------------------------------------------------|
D---7--------7-6-4-4-------4-4---4------7------7-------4-7-4-|
A-------4-7----------4-4-7-----4---7------4-7----4-5-5-------|
E-----5-------------------------------5----------------------|

G-------------------------------------------------------------|
D---7--7--7-------7------------7------7-6-4-4-------4-4-4---4-|
A------------7------4-7-4-7------4-7----------4-4-7-------4---|
E---------------5------------5--------------------------------|

G-------------------|
D---7-4----7-4----7-|
A-------7------7----|
E-------------------|
Comments