Beatles - You Never Give Me Your Money Chords & Tabs

 

You Never Give Me Your Money Chords & Tabs

Beatles Chords & Tabs

Version: 3 Type: Bass Tab 0 ratings
1 star 2 stars 3 stars 4 stars 5 stars
comments

You Never Give Me Your Money Bass Tab

YOU NEVER GVE ME YOUR MONEY
ABBEY ROAD (1969)
TRACK #9

To get this, please listen to the song. It will make the tab so much easier. Enjoy!


Bass enters at about 46 seconds:

  “I never give you my number…”
G|----------------------------------|
D|-------------------------2-3------|
A|----------------5------5----------|
E|-5--------------------------------|

  “I only give you my situation…”
G|---------------------------------|
D|-5--------------0--2-------------|
A|----------3--3-------------------|
E|---------------------------------|

  “and in the middle of investigation…”
G|----------------------------------|
D|-3-----------0-2------------------|
A|---------2-3----------------------|
E|------------------0---------------|

“I break down”
G|----------------------------------|
D|---------------5-3-2--------------|
A|---------------------5------------|
E|-5--------------------------------|

“Out of college, money spent…”
G|-------------------|
D|--------------6----|
A|---7-11-7-7-9---7--|
E|-8-----------------|

“See no future, pay no rent…” 
G|--------------------|
D|-7-9-10-7-10-8-7-5--|
A|--------------------|
E|--------------------|

“All the money’s gone, no where to go”
G|--------------------|
D|---5-----5-----5----|
A|-8---7-8---8-7------|
E|--------------------|

G|--------------------|
D|-----5-7-8-7-5------|
A|---7-----------7----|
E|-8------------------|

“Any jobber got the sack…”
G|-------------------|
D|--------------6----|
A|---7-11-7-7-9---7--|
E|-8-----------------|

“Monday morning, turning back…”
G|--------------------|
D|-7-9-10-7-10-8-7-5--|
A|--------------------|
E|--------------------|

“Yellow lorry slow, nowhere to go”
G|--------------------|
D|---5-7---5----------|
A|-8-----8---8-7-5----|
E|--------------------|

G|--------------------|
D|-----5-7-8-7-5------|
A|---7-----------7----|
E|-8------------------|
[ Tab from: http://www.guitartabs.cc/tabs/b/beatles/you_never_give_me_your_money_btab_ver_3.html ]
 “But oh that magic feeling, nowhere to go…”
G|--------------------------------|
D|--------------------------------|
A|------------8----8--------------|
E|-6----6----------------8----8---|

 “Oh that magic feeling, nowhere to go…”
G|--------------------------------|
D|--------------------------------|
A|--------------------------------|
E|-6----6----1----1----8---8------|

G|--------------------------------|
D|--------------------------------|
A|--------------------------------|x4
E|-6----6----1----1----8----8-----|

Guitar Jam:
G|-------------------------------------|
D|-------------------------------------|
A|------------------5-5-5-5-5555555----|
E|-8-8-8-8-8888888---------------------|

G|-------------------------------------|
D|-------------------------------------|
A|-6-6-6-6-11-11-11-11-11-11-----------|
E|-------------------------------------|

G|------------------------------------------------|
D|------7-------11-------13-------16-17-18-19\----|
A|-11--------6--------9-------12------------------|
E|------------------------------------------------|

“One Sweet Dream…”
G|-----------------------------|
D|-----------------------------|
A|--------------222-222-2-2-2--|
E|-5-5-5-5555------------------|

“Pick up your bags and get in the limousine…”
G|---------------------------------------------|
D|---------2-2-2-2------------------4-7--------|
A|-3-3-3-5----------------------4-7-----4------|
E|-----------------5-5-5-5-55-5----------------|

“Soon we’ll be away from here…”
G|----------------------|
D|-----------12-12-12---|
A|-5---5----------------|
E|----------------------|

“Step on the gas and wipe that tear away”
G|---------------------------|
D|---------------------------|
A|-5---5----/12--------------|
E|----------------5-5-5-5----|

“One sweet dream came true… today”
G|-----------------------|
D|--------------4--7-----|
A|-3---2------4----------|
E|----------5------------|

G|-----------------------|
D|--------------4--7-----|
A|-3---2------4----------|
E|----------5------------| 

Throw this in after the 4th time
G|------------------|
D|-7777777777-------|
A|------------------|
E|------------------| 

FADE OUT
Comments