Beatles - You Know What To Do Chords & Tabs

 

You Know What To Do Chords & Tabs

Beatles Chords & Tabs

Version: 1 Type: Bass Tab 0 ratings
1 star 2 stars 3 stars 4 stars 5 stars
comments

You Know What To Do Bass Tab

YOU KNOW WHAT TO DO

Written by George Harrison

INTRO
  t=165
G|---------------------------------|---------------------------------|
D|-7-----------7---7-----------7---|-7-----------7---7---------------|
A|---------------------------------|---------------------------------|
E|---------------------------------|---------------------------------|

VERSE

G|---------------------------------|---------------------------------|
D|-7-----------7-------------------|-7-----------7-----------7-------|
A|-----------------7-----------7---|-----------------7---------------|
E|---------------------------------|---------------------------------|


G|---------------------------------|---------------------------------|
D|---------------------------------|---------------------------------|
A|-7-----------7-------------------|-7-----------7-------------------|
E|-----------------7-----------7---|-----------------7---------------|


G|---------------------------------|---------------------------------|
D|-7-----------7-------------------|-7-----------7-------------------|
A|-----------------7-----------7---|-----------------7---------------|
E|---------------------------------|---------------------------------|


G|---------------------------------|---------------------------------|
D|---------------------------------|---------------------------------|
A|-7-----------7-------------------|-7-----------7-------------------|
E|-----------------7-----------7---|-----------------7---------------|


CHORUS

G|---------------------------------|---------------------------------|
D|---------------------------------|---------------------------------|
A|-----------------7---------------|-7-----------7-------------------|
E|-5-----------5-------------------|-----------------7---------------|


G|---------------------------------|---------------------------------|
D|---------------------------------|---------------------------------|
A|-----------------7---------------|-7-----------7-------------------|
E|-5-----------5-----------5-------|-----------------7---------------|


G|---------------------------------|---------------------------------|
D|---------------------------------|---------------------------------|
A|-5-----------5---5-----------5---|-5-----------5---5-------5-------|
E|---------------------------------|---------------------------------|


VERSE

G|---------------------------------|---------------------------------|
D|---------------------------------|---------------------------------|
A|-----------------7-----------7---|-----------------7---------------|
E|-5-----------5-------------------|-5-----------5-----------5-------|


G|---------------------------------|---------------------------------|
D|---------------------------------|---------------------------------|
A|-7-----------7-------------------|-7-----------7-------------------|
E|-----------------7---------------|-----------------7---------------|


G|---------------------------------|---------------------------------|
D|---------------------------------|---------------------------------|
A|-----------------7---------------|-----------------7---------------|
E|-5-----------5-------------------|-5-----------5-------------------|


G|---------------------------------|---------------------------------|
D|---------------------------------|---------------------------------|
A|-7-----------7-------------------|-7-----------7-------------------|
E|-----------------7-----------7---|-----------------7---------------|


CHORUS

G|---------------------------------|---------------------------------|
D|---------------------------------|---------------------------------|
A|---------------------------------|-7-----------7---7---------------|
E|-5-----------5---5---------------|---------------------------------|


G|---------------------------------|---------------------------------|
D|---------------------------------|---------------------------------|
A|---------------------------------|-7-----------7-------------------|
E|-5-----------5---5---------------|-----------------7---------------|


G|---------------------------------|---------------------------------|
D|---------------------------------|---------------------------------|
A|-5-------5-------5-------5-------|-5-------5-------5-------5-------|
E|---------------------------------|---------------------------------|


BRIDGE

G|---------------------------------|---------------------------------|
D|---------------------------------|---------------------------------|
A|---------------------------------|---------------------------------|
E|-7-----------7---7-----------7---|-7-----------7---7---------------|


G|---------------------------------|---------------------------------|
D|---------------------------------|---------------------------------|
A|---------------------------------|---------------------------------|
E|-6-----------6---6-----------6---|-6-----------6---6---------------|


G|---------------------------------|---------------------------------|
D|---------------------------------|---------------------------------|
A|-----------------7---------------|-----------------7---------------|
E|-5-----------5-------------------|-5-----------5-----------5-------|


G|---------------------------------|---------------------------------|
D|---------------------------------|---------------------------------|
A|-5-----------5---5-----------5---|-5-----------5---4-------2-------|
E|---------------------------------|---------------------------------|


VERSE
[ Tab from: http://www.guitartabs.cc/tabs/b/beatles/you_know_what_to_do_btab.html ]
G|---------------------------------|---------------------------------|
D|---------------------------------|---------------------------------|
A|-----------------7---------------|-----------------7---------------|
E|-5-----------5-------------------|-5-----------5-----------5-------|


G|---------------------------------|---------------------------------|
D|---------------------------------|---------------------------------|
A|-7-----------7-------------------|-7-----------7-------------------|
E|-----------------7-----------7---|-----------------7---------------|


G|---------------------------------|---------------------------------|
D|---------------------------------|---------------------------------|
A|-----------------7---------------|-----------------7---------------|
E|-5-------------------------------|-5-----------------------5-------|


G|---------------------------------|---------------------------------|
D|---------------------------------|---------------------------------|
A|-7-----------7-------------------|-7-----------7-----------7-------|
E|-----------------7-----------7---|-----------------7---------------|


CHORUS

G|---------------------------------|---------------------------------|
D|---------------------------------|---------------------------------|
A|---------------------------------|---------------------------------|
E|-5-------5-------5---------------|-0-----------0---0---------------|


G|---------------------------------|---------------------------------|
D|---------------------------------|---------------------------------|
A|---------------------------------|---------------------------------|
E|-5-----------5---5---------------|-0-----------0---0---------------|


G|---------------------------------|---------------------------------|
D|---------------------------------|---------------------------------|
A|-5-------5-------5---------------|-5-----------5---5-------5-------|
E|---------------------------------|---------------------------------|


BRIDGE

G|---------------------------------|---------------------------------|
D|---------------------------------|---------------------------------|
A|---------------------------------|---------------------------------|
E|-7-----------7---7---7-------7---|-7---7-------7---7-------7-------|


G|---------------------------------|---------------------------------|
D|---------------------------------|---------------------------------|
A|---------------------------------|---------------------------------|
E|-6-----------6---6-----------6---|-6---6-------6---6---------------|


G|---------------------------------|---------------------------------|
D|---------------------------------|---------------------------------|
A|---------------------------------|---------------------------------|
E|-5-----------5---5-----------5---|-5-----------5---5-------5-------|


G|---------------------------------|---------------------------------|
D|---------------------------------|---------------------------------|
A|-5---------------5-----------5---|-5-----------5---4-------2-------|
E|---------------------------------|---------------------------------|


VERSE

G|---------------------------------|---------------------------------|
D|---------------------------------|---------------------------------|
A|---------------------------------|---------------------------------|
E|-5-----------5---5-----------5---|-5-----------5---5---------------|


G|---------------------------------|---------------------------------|
D|---------------------------------|---------------------------------|
A|---------------------------------|---------------------------------|
E|-0-----------0---0-----------0---|-0-----------0---0---------------|


G|---------------------------------|---------------------------------|
D|---------------------------------|---------------------------------|
A|---------------------------------|---------------------------------|
E|-5-----------5---5---------------|-5-----------5---5---------------|


G|---------------------------------|---------------------------------|
D|---------------------------------|---------------------------------|
A|---------------------------------|---------------------------------|
E|-0---------------0-----------0---|-0-----------0---0---------------|


CHORUS

G|---------------------------------|---------------------------------|
D|---------------------------------|---------------------------------|
A|---------------------------------|-------------7-------------------|
E|-5-----------5---5---------------|-0---------------7---------------|


G|---------------------------------|---------------------------------|
D|---------------------------------|---------------------------------|
A|-------------------------7-------|-----------------7---------------|
E|-5-----------5---5---------------|-0-----------0-------------------|


G|---------------------------------|---------------------------------|
D|---------------------------------|---------------------------------|
A|-5-------5-------5-------5-------|-5-----------5---5-------5-------|
E|---------------------------------|---------------------------------|


G|---------------------------------|---------------------------------|
D|---------------------------------|---------------------------------|
A|-5---------------5---------------|-5-------------------------------|
E|---------------------------------|---------------------------------|


G|---------------------------------|---------------------------------|
D|---------------------------------|---------------------------------|
A|-5-------------------------------|-5-------------------------------|
E|---------------------------------|---------------------------------|


G|---------------------------------|---------------------------------|
D|---------------------------------|---------------------------------|
A|-5-------------------------------|---------------------------------|
E|---------------------------------|---------------------------------|
Comments