Beatles - You Know My Name Chords & Tabs

 

You Know My Name Chords & Tabs

Beatles Chords & Tabs

Version: 1 Type: Tab 0 ratings
1 star 2 stars 3 stars 4 stars 5 stars
comments

You Know My Name Tab

   
-------------------------------------------------------------------------

    THE BEATLES - YOU KNOW MY NAME (LOOK UP THE NUMBER)(Lennon/McCartney) 
                  Released on 6th Mars 1970 as the B side of LET IT BE 
                  single.

-------------------------------------------------------------------------

  Tabbed by:PJVillanueva





 Although this was the last Beatles single, various versions of this song
 were recorded long before on 17th May, 7th and 8th June 1967. 
 Vocals were added on 30th April 1969. This last session included also the 
 recording of Mal Evans shoveling gravel, George playing vibraphone and 
 Brian Jones of the Stones playing the ending sax part.
 John's vocal part here is a very fine tribute to The Goons. (I think the
 whole song is.)
 The Goon Show was a 50's British radio show which included Spike Milligan,
 Peter Sellers and Harry Secombe. They made people split their sides with 
 laughter with their absurdities, their impossible lines and puns and some
 incredible sound effects, criticizing the establishment and laughing at
 the stupidity of humans. 
    

 
      
        
               


You know my name
Look up the number
You know my name
Look up the number
You you know you know my name
You you know you know my name

Good evening and welcome to Slaggers
Featuring Denis O'Bell
Oh, Ringo, let's hear it for Denis

Good evening
You know my name
Better look up the number
You know my name
(That's right) look up the number
You you know you know my name
You you know you know my name
You know my name
Pa pa pa pa pa pa pa pa pa
Look up my number
You know my name  Ha!
That's right look up the number
Oh you know you know
You know my name you know you know you know my name.

Huh huh huh huh
You know my name
Ba ba ba pum
Look up the number
You know my name
Look up the number
You-a you know you know my name
Baby you-a you know you know my name
You know my name you know you know you know my name

Oh, lets hear
Go on Denis, let's hear it for Denis O'Bell
My name you know you know you know you know you know my name
Prrr prrr you know my name and the number
You know my name and the number you know you know my name
Look up me number
You know my number two You know my number three
You know my number four. You know my name you know my number too
You know my name you know my number
What's up with you?
You know my name
That's right
Yeah. Lennon's grunting..........
.................................
That's right, dear. That's all...
Oh yeah. How about that?.........
.................................







  Intro
                                     
  Bm+5                            A
e|------- ------- ------- -------|------- ------- ------- -------|
B|3------------------------------|2------------------------------|
G|4------------------------------|2------------------------------|
D|5------------------------------|2------------------------------|
A|5------------------------------|-------------------------------|
E|-------------------------------|-------------------------------|




  D               F#m             G               A
e|------- ------- ------- -------|------- ------- ------- -------|
B|--------3---------------2------|--------0---------------2------|
G|--------2---------------2------|--------0---------------2------|
D|0---0-------------------4------|--------0---------------2------|
A|-------------------------------|----------------0---0---0------|
E|----------------2---2----------|3---3--------------------------|




  D               F#m             G               A
e|------- ------- ------- -------|------- ------- ------- -------|
B|--------3-------2-------2------|0-------0-------2-------2------|
G|--------2---2---2-------2------|0-------0-------2-------2------|
D|0---0-----------4-------4---4--|0-------0-------2-------2------|
A|-------------------------------|----------------0---0----------|
E|----------------2---2----------|3---3--------------------------|


  Part 1

  G                               F#+5
e|------- ------- ------- -------|2------ 2------ 2------ 2------|
B|0-------0-------0-------0------|3-------3-------3-------3------|
G|0-------0-------0-------0------|3-------3-------3-------3------|
D|0-------0-------0-------0------|-------------------------------|
A|-------------------------------|1---1-----------1---1----------|
E|3---3-----------3---3----------|-------------------------------|
              You know my     name



  Bm                              E9
e|2------ 2------ 2------ 2------|------- ------- ------- -------|
B|3-------3-------3-------3------|7-------7-------7-------7------|
G|4-------4-------4-------4------|7-------7-------7-------7------|
D|-------------------------------|6-------6-------6-------6------|
A|2---2-----------2---2----------|7---7---5---5---4---4----------|
E|-------------------------------|------------------------7------|
                       Look up the number



  G               D               Em
e|------- ------- ------- -------|------- ------- ------- -------|
B|0-------0-------3-------3------|0-------0-------0-------0------|
G|0-------0-------2-------2------|0-------0-------0-------0------|
D|0-------0-------0--------------|2-------2-------2-------2------|
A|----2-------2-------0-------0--|------------2------------------|
E|3-----------------------2------|0---2---3-------0---2---3---0--|
  You know    my  name                                    Look up my 



  A
e|------- ------- ------- -------|
B|2-------2-------2-------2------|
G|2-------2-------2-------2------|
D|2-------2-------2-------2------|
A|0---0---0-------0--------------|
E|--------------------3---2---0--|
  number



  D               F#m             G               A
e|------- ------- ------- -------|------- ------- ------- -------|
B|--------3-------2-------2------|0-------0-------2-------2------|
G|--------2---2---2-------2------|0-------0-------2-------2---2--|
D|0---0-----------4-------4---4--|0-------0-------2-------2------|
A|-------------------------------|----------------0---0---0------|
E|----------------2---2----------|3---3--------------------------|
  You             you know        you know    my  name



  D               F#m             G               A
e|------- ------- ------- -------|------- ------- ------- -------|
B|--------3-------2-------2------|0-------0-------2-------2------|
G|--------2---2---2-------2------|0-------0---0---2-------2---2--|
D|0---0-----------4-------4---4--|0-------0-------2-------2------|
A|-------------------------------|----------------0---0----------|
E|----------------2---2----------|3---3--------------------------|
  You             you know        you know    my  name



                  Part 2

  D               x   x   X   X   x   x x x   x   x   x   X   X
e|2------ ------- ------- -------|------- ------- ------- -------|
B|3------------------------------|-------------------------------|
G|2------------------------------|-------------------------------|
D|0------------------------------|-------------------------------|
A|-------------------------------|-------------------------------|
E|-------------------------------|-------------------------------|




  x   x x x   x   x   x   X   X   x   x x x   x   x   x   X   X
e|------- ------- ------- -------|------- ------- ------- -------|
B|-------------------------------|-------------------------------|
G|-------------------------------|-------------------------------|
D|-------------------------------|-------------------------------|
A|-------------------------------|------------------------0------|
E|-------------------------------|-------------------------------|
Good evening and welcome to Slaggers          Featuring Denis O  '  



  D           B           A       E           B           A
e|------- ------- ------- -------|------- ------- ------- -------|
B|-------------------------------|-------------------------------|
G|-------------------------------|-------------------------------|
D|0------------------------------|-------------------------------|
A|------------2-----------0------|------------2-----------0------|
E|-------------------------------|0------------------------------|

  Bell.                       Oh, Ringo,              Ringo


  D           B           A       E           B           A
e|------- ------- ------- -------|------- ------- ------- -------|
B|-------------------------------|-------------------------------|
G|-------------------------------|-------------------------------|
D|0------------------------------|-------------------------------|
A|------------2-----------0------|------------2-----------0------|
E|-------------------------------|0------------------------------|
                                     Good evening
    let's hear it for Denis -ha hey-



  G                               F#+5
e|------- ------- ------- -------|----2-- ------- ------- -------|
B|----3--------------------------|------3------------------------|
G|------4------------------------|--------3----------------------|
D|--------5----------------------|------------0------------------|
A|------------5------------------|------------------------4------|
E|3-----------------------3------|2------------------------------|
              You know my     name


  Bm                              E
e|----2-- ------- ------- -------|----0-- ------- ----0-- ----0--|
B|------3------------------------|------0-------------0-------0--|
G|--------4----------------------|--------1-----------1-------1--|
D|------------4------------------|-------------------------------|
A|2------------------------------|------------2-----------0------|
E|------------------------2------|0------------------------------|
            looloolook up the number


  G                               Em
e|------- ------- ------- -------|----0-- ------- ------- -------|
B|----0--------------------------|------0------------------------|
G|------0------------------------|--------0----------------------|
D|--------0---------------0------|-------------------------------|
A|------------2------------------|------------2------------------|
E|3------------------------------|0-----------------------0------|
  You know my name                  (That's right)        Look up the



  A
e|----0-- ------- ----0-- ----0--|
B|------2-------------2-------2--|
G|--------2-----------2-------2--|
D|------------2-------2-------2--|
A|0-----------------------0------|
E|-------------------------------|
  number



  D                               Em              A
e|----2-- ------- ----2-- ----2--|----0-- ------- ----0-- ----0--|
B|------3-------------3-------3--|------0-------------2-------2--|
G|--------2-----------2-------2--|--------0-----------2-------2--|
D|0-----------0------------------|-------------------------------|
A|-------------------------------|------------0------------------|
E|-------------------------------|0------------------------------|
  You             you know        you know    my  name
                                 (you know    my  name)


   D                               Em              A
e|2---2-- ------- ----2-- ----2--|----0-- ------- ----0-- ----0--|
B|3-----3-------------3-------3--|------0-------------2-------2--|
G|2-------2-----------2-------2--|--------0-----------2-------2--|
D|0-----------0------------------|--------------------2-------2--|
A|-------------------------------|------------0------------------|
E|-------------------------------|0------------------------------|
  You             you know        you know    my  name



  G                               F#+5
e|------- ------- ------- -------|----2-- ------- ----2-- ----2--|
B|----3---------------3-------3--|------3-------------3-------3--|
G|------4-------------4-------4--|--------3-----------3-------3--|
D|--------5-----------5-------5--|------------0------------------|
A|------------5------------------|------------------------4------|
E|3-----------------------3------|2------------------------------|
              you know my     name   baba baba  baba     bababa
                                              (yaahoo)


  Bm                              E9
e|----2-- ------- ----2-- ----2--|------- ------- ------- -------|
B|------3-------------3-------3--|----7---------------7-------7--|
G|--------4-----------4-------4--|------7-------------7-------7--|
D|------------4------------------|--------6-----------6-------6--|
A|2-----------------------2------|------------7-------7-------7--|
E|-------------------------------|0-----------------------7------|
                    Look up the number



  G                               Em
e|------- ------- ------- -------|----7-- ------- ----7-- ----7--|
B|----3---------------3-------3--|------8-------------8-------8--|
G|------0-------------0-------0--|--------9-----------9-------9--|
D|--------0---------------0------|-------------------------------|
A|------------2------------------|-------------------------------|
E|3------------------------------|0-----------7-----------0------|
  You know my name,       Ha!          (That's right) Look up the




  A
e|0---0-- 0------ ------- -------|
B|2---2---2----------------------|
G|2---2---2----------------------|
D|2---2---2----------------------|
A|0---0---0----------------------|
E|-------------------------------|
  number.              Oh
                      Oh



  D6                              Em7
e|------- ------- ------- -------|------- ------- ------- -------|
B|----3---------------3-------3--|----3---------------2-------2--|
G|------4-------------4-------4--|------4-------------2-------2--|
D|--------4-----------4-------4--|--------5-----------2-------2--|
A|5-----------2-----------0------|------------2-----------0------|
E|-------------------------------|0------------------------------|
  You know            you know        You know my name
 



  D6                              Em7
e|------- ------- ------- -------|------- ------- ------- -------|
B|----3---------------3-------3--|----3---------------2-------2--|
G|------4-------------4-------4--|------4-------------2-------2--|
D|--------4-----------4-------4--|--------5-----------2-------2--|
A|5-----------2-----------0------|------------2-----------0------|
E|-------------------------------|0------------------------------|
      you know               you know you know my name.   Huhhuhhuh




  G                               F#+5
e|------- ------- ------- -------|----2-- ------- ----2-- ----2--|
B|----3---------------3-------3--|------3-------------3-------3--|
G|------4-------------4-------4--|--------3-----------3-------3--|
D|--------5-----------5-------5--|------------0------------------|
A|------------5------------------|------------------------4------|
E|3-----------------------3------|2------------------------------|
  huh                you know my name             Ba ba ba pum



  Bm                              E
e|----2-- ------- ------- -------|------- ------- ------- -------|
B|------3------------------------|----7---------------7-------7--|
G|--------4----------------------|------7-------------7-------7--|
D|------------4------------------|--------6-----------6-------6--|
A|2------------------------------|--------------------7-------7--|
E|------------------------2------|0-----------0------------------|
                      Look up the number



  D6                              Em7                 
e|------- ------- ------- -------|------- ------- ------- -------|
B|----3---------------3-------3--|----3---------------3-------3--|
G|------4-------------4-------4--|------4-------------4-------4--|
D|--------4-----------4-------4--|--------5-----------5-------5--|
A|5-----------2-----------0------|------------2-----------0------|
E|-------------------------------|0------------------------------|
  you know   my   name                                   Look up the



  A
e|----0-- ------- ------- ----0--|
B|------2---------------------2--|
G|--------2-------------------2--|
D|------------2------------------|
A|0-----------------------0------|
E|-------------------------------|
  number




  D6                              Em7                 A
e|------- ------- ------- -------|------- ------- ------- -------|
B|----3---------------3----------|----3---------------2----------|
G|------4-------------4----------|------4-------------2----------|
D|--------4-----------4----------|--------5-----------2----------|
A|5-----------2-----------0------|------------2-----------0------|
E|-------------------------------|0------------------------------|
  You             you know        You know my name,       baby
 


  D6                              Em7                 A
e|------- ------- ------- -------|------- ------- ------- -------|
B|----3---------------3-------3--|----3---------------2----------|
G|------4-------------4-------4--|------4-------------2----------|
D|--------4-----------4-------4--|--------5-----------2----------|
A|5-----------2-----------0------|------------2-----------0------|
E|-------------------------------|0------------------------------|
      you         you know        you know my name.  




  D6                              Em7                 A7
e|------- ------- ------- -------|----0-- ------- ----0-- ----0--|
B|----3---------------3-------3--|------2-------------2-------2--|
G|------4-------------4-------4--|--------0-----------0-------0--|
D|--------4-----------4-------4--|2------------------------------|
A|5-----------2-----------0------|------------2-----------0------|
E|-------------------------------|-------------------------------|
                  You know        You know my name
 



  D6                              Em7                 A7
e|------- ------- ------- -------|----0-- ------- ----0-- ----0--|
B|----3---------------3-------3--|------2-------------2-------2--|
G|------4-------------4-------4--|--------0-----------0-------0--|
D|--------4-----------4-------4--|2------------------------------|
A|5-----------2-----------0------|------------2-----------0------|
E|-------------------------------|-------------------------------|
          You             you know my name.  
                Oh, let's hear        Go on Denis, let's hear it for 



  x           x       x   x   x x

e|------- ------- ------- ----------|
B|----------------------------------|
G|----------------------------------|
D|----------------------------------|
A|----------------------------------|
E|----------------------------------|            

  Denis O'Bell
                     My name

  Part 3

  D               F#m             G               A        
e|------- 5------ ------- 5------|3------ ------- ------- 5------|
B|--------3---------------2------|3-----------------------2------|
G|--------2---------------2------|0-----------------------2------|
D|0-----------------------4------|0-----------------------2------|
A|-------------------------------|----------------0--------------|
E|----------------2--------------|3------------------------------|
                              You know you know       you know my
      You know        you know        you know my     name                              
  (Mal Evans shoveling gravel.....)



  D               F#m             G               A        
e|------- 5------ ------- 5------|3------ ------- ------- 5------|
B|--------3---------------2------|3-----------------------2------|
G|--------2---------------2------|0-----------------------2------|
D|0-----------------------4------|0-----------------------2------|
A|-------------------------------|----------------0--------------|
E|----------------2--------------|3------------------------------|
  number              you know my name        you know my number
      You know            you know        you know    my    name
  


  G                               F#+5
e|3------ ------- ------- -------|2------ ------- ------- -------|
B|3------------------------------|3------------------------------|
G|0------------------------------|2------------------------------|
D|0------------------------------|-------------------------------|
A|-------------------------------|-------------------------------|
E|3------------------------------|2------------------------------|
  Prrrrr  prrrrr
              You know my name                  Look up the number  
e|------- ------- ------- -------|5------ ------- ------- -------|
B|-------------------------------|-------------------------------|
G|-------------------------------|-------------------------------|
D|-------------------------------|-------------------------------|
A|-------------------------------|-------------------------------|
E|-------------------------------|-------------------------------|




  Bm                              E
e|2------ ------- ------- -------|0------ ------- ------- -------|
B|3------------------------------|0------------------------------|
G|4------------------------------|1------------------------------|
D|4------------------------------|2------------------------------|
A|2------------------------------|-------------------------------|
E|-------------------------------|0------------------------------|

               You know my name                 Look up the number
e|------- ------- ------- -------|5------ 5------ 5------ 5------|
B|7------------------------------|-----7-------7-------7-------7-|
G|-------------------------------|-------------------------------|
D|-------------------------------|-------------------------------|
A|-------------------------------|-------------------------------|
E|-------------------------------|-------------------------------|



[ Tab from: http://www.guitartabs.cc/tabs/b/beatles/you_know_my_name_tab.html ]
  G               D               Em
e|7------ ------- 5------ -------|7------ ------- ------- -------|
B|8---------------7--------------|8------------------------------|
G|0---------------7--------------|9------------------------------|
D|----------------0--------------|-------------------------------|
A|-------------------------------|-------------------------------|
E|-------------------------------|0------------------------------|
       You know my            you know    my
                    You  know                 you know  my    name      
e|5------ ------- ------- -------|------- ------- ------- -------|
B|-----7-------------------------|-------------------------------|
G|-------------------------------|-------------------------------|
D|-------------------------------|-------------------------------|
A|-------------------------------|-------------------------------|
E|-------------------------------|-------------------------------|




  A         
e|0------ ------- ------- 5------|
B|2-----------------------2------|
G|2-----------------------2------|
D|2-----------------------2------|
A|0-----------------------0------|
E|-------------------------------|
                  Look up the number
                               You                  
e|------- ------- ------- -------|
B|------------5H7P5---5H7P5------|
G|-------------------------------|
D|-------------------------------|
A|-------------------------------|
E|-------------------------------|





  D               F#m             G               A
e|------- ------- ------- -------|------- ------- ------- -------|
B|--------3---------------2------|--------0---------------2------|
G|--------2---------------2------|--------0---------------2------|
D|0-----------------------4------|--------0---------------2------|
A|-------------------------------|----------------0--------------|
E|----------------2--------------|3------------------------------|
      You know  my  name      you know my number  two         you
  know my name                You know               you know m' name

      

  D               F#m             G               A
e|------- 5------ ------- 5------|------- 3------ ------- 5------|
B|--------3---------------2------|--------3---------------2------|
G|--------2---------------2------|--------0---------------2------|
D|0-----------------------4------|--------0---------------2------|
A|-------------------------------|----------------0--------------|
E|----------------2--------------|3------------------------------|
                      You know  my   name            you know my name
  know me number  three       you know my number  four




  D               F#m             G               Bm6
e|------- 5------ ------- 5------|------- 3------ ------- 4------|
B|--------3---------------2------|--------3---------------3------|
G|--------2---------------2------|--------0---------------4------|
D|0-----------------------4------|--------0----------------------|
A|-------------------------------|-------------------------------|
E|----------------2--------------|3---------------4--------------|
      You know my name        you know my number two          you
    Look up the number                               you know m'name      
e|------- ------- ------- -------|------- ------- 5----5- -------|
B|-------------------------------|-------------------7----7------|
G|-------------------------------|-------------------------------|
D|-------------------------------|-------------------------------|
A|-------------------------------|-------------------------------|
E|-------------------------------|-------------------------------|





  A7                                                      D6
e|5----5- ----5-- ------- -------|------- ------- ------- 10-----|
B|8----8------8------------------|------------------------12-----|
G|6----6------6------------------|------------------------11-----|
D|7----7------7------------------|-------------------------0-----|
A|0-----------0------------------|-------------------------------|
E|-------------------------------|-------------------------------|
  know my     name    me number   What's up  with you?
                      You know my name
  

                      

e|------- ------- ------- -------|------- ----10- ------- -------|
B|-------------------------------|--------11--12-----------------|
G|-------------------------------|--------10--11-----------------|
D|-------------------------------|-------------0-----------------|
A|-------------------------------|-------------------------------|
E|-------------------------------|-------------------------------|
      You know my name                    That's right

                                                               Yeah
     
  Part 4

e|------- ------- 10---7- -------|------- ------- ------- -------|
B|-----------7-10-------------10-|-----8------10-----------------|
G|-----6--7----------------------|-------------10/11-------------|
D|-------------------------------|--------------------12--9------|
A|-------------------------------|----------------------------12-|
E|-------------------------------|-------------------------------|




                                  G               A11         D6
e|------- ----10- ----10- -------|10----- ------- 10----- ----10-|
B|------------12------12---------|12--------------12----------12-|
G|------------11------11---------|12--------------12----------11-|
D|0------------------------------|-----------------------------0-|
A|-------------9-------9---------|10--------------12-------------|
E|-------------------------------|-------------------------------|
  (John's grunting....)
e|2----2- 2------ 2------ 2------|3------ 3------ 0------ 0------|
B|3----3--3-------2-------2------|3-------3-------2-------2------|
G|2----2--2-------2-------2------|0-------0-------2-------2------|
D|0----0--0-------4-------4------|0-------0-------2-------2------|
A|----------------4-------4------|----------------0-------0------|
E|----------------2-------2------|3-------3----------------------|




                  D               G           A11
e|------- ------- 10-10-- 10-----|10----- ----10- ----10- -------|
B|----------------10-10---10-----|12----------12------12---------|
G|----------------11-11---11-----|12----------12------12---------|
D|-------------------------------|-------------------------------|
A|-----------------9-------9-----|10----------12------12---------|
E|-------------------------------|-------------------------------|

e|2------ 2------ 2------ 2------|3------ 3----0- -----0- 0------|
B|3-------3-------2-------2------|3-------3----2-------2--2------|
G|2-------2-------2-------2------|0-------0----2-------2--2------|
D|0-------0-------4-------4------|0-------0----2-------2--2------|
A|----------------4-------4------|-------------0-------0--0------|
E|----------------2-------2------|3-------3----------------------|





  G                               F#+5                        Bm
e|3------ ------- ------- -------|2------ ------- ----2-- ----2--|
B|3------------------------------|3-------------------3-------3--|
G|0------------------------------|3-------------------3-------4--|
D|0------------------------------|4---------------------------4--|
A|-------------------------------|--------------------1-------2--|
E|3------------------------------|2------------------------------|

e|3------ 3------ 3------ 3------|2------ 2------ 2------ 2------|
B|3-------3-------3-------3------|3-------3-------3-------3------|
G|0-------0-------0-------0------|3-------3-------3-------3------|
D|0-------0-------0-------0------|0-------0-------0-------0------|
A|2-------2-------2-------2------|-------------------------------|
E|3-------3-------3-------3------|2-------2-------2-------2------|




                     Bm7      E
e|------- ------- ---2--- ----0--|------- ------- ------- -------|
B|-------------------3--------0--|-------------------------------|
G|-------------------2--------1--|-------------------------------|
D|-------------------4--------2--|-------------------------------|
A|-------------------2-----------|-------------------------------|
E|----------------------------0--|-------------------------------|

e|2------ 2------ 2------ 2------|0------ 0------ 0------ 0------|
B|3-------3-------3-------3------|0-------0-------0-------0------|
G|4-------4-------4-------4------|1-------1-------1-------1------|
D|4-------4-------4-------4------|2-------2-------2-------2------|
A|2-------2-------2-------2------|2-------2-------2-------2------|
E|-------------------------------|0-------0-------0-------0------|




  G           D                   Em                          A
e|3------ ----2-- ------- --2----|3------ ------- ----3-- ----5--|
B|3-----------3-------------3----|0-------------------0-------2--|
G|0-----------2-------------2----|0-------------------0-------2--|
D|0-----------0-------------0----|2-------------------2-------2--|
A|-------------------------------|----------------------------0--|
E|3-----------2-------------2----|0-------------------0----------|

e|3------ 3------ 2------ 2------|0------ 0------ 0------ 0------|
B|3-------3-------3-------3------|0-------0-------0-------0------|
G|0-------0-------2-------2------|0-------0-------0-------0------|
D|0-------0-------0-------0------|2-------2-------2-------2------|
A|2-------2----------------------|2-------2-------2-------2------|
E|3-------3----------------------|0-------0-------0-------0------|





e|------- ------- ------- -------|
B|-------------------------------|
G|-------------------------------|
D|-------------------------------|
A|-------------------------------|
E|-------------------------------|

e|0------ 0------ 0------ 0------|
B|2-------2-------2-------2------|
G|2-------2-------2-------2------|
D|2-------2-------2-------2------|
A|0-------0-------0-------0------|
E|-------------------------------|





                  F#m             G           A7
e|------- ------- 2------ -------|3------ ----3-- ----3-- -------|
B|----------------2--------------|3-----------2-------2----------|
G|----------------2--------------|0-----------2-------2----------|
D|----------------4--------------|0-----------2-------2----------|
A|-------------------------------|------------0-------0----------|
E|----------------2--------------|3------------------------------|

e|2------ 2------ 2------ 2------|3------ 3----0- 0------ 0------|
B|3-------3-------2-------2------|3-------3----2--2-------2------|
G|2-------2-------2-------2------|0-------0----2--2-------2------|
D|0-------0-------4-------4------|0-------0----2--2-------2------|
A|----------------4-------4------|-------------0--0-------0------|
E|----------------2-------2------|3-------3----------------------|




                  F#m             G           A7
e|------- ------- 2------ -------|3------ ----3-- ----3-- -------|
B|----------------2--------------|3-----------2-------2----------|
G|----------------2--------------|0-----------2-------2----------|
D|----------------4--------------|0-----------2-------2----------|
A|-------------------------------|------------0-------0----------|
E|----------------2--------------|3------------------------------|

e|2------ 2------ 2------ 2------|3------ 3----0- 0----0- -------|
B|3-------3-------2-------2------|3-------3----2--2----2---------|
G|2-------2-------2-------2------|0-------0----2--2----2---------|
D|0-------0-------4-------4------|0-------0----2--2----2---------|
A|----------------4-------4------|-------------0--0----0---------|
E|----------------2-------2------|3-------3----------------------|




  G                               F#+5                        Bm
e|3------ ------- ------- -------|2------ ------- ----2-- ----2--|
B|3------------------------------|3-------------------3-------3--|
G|0------------------------------|3-------------------3-------4--|
D|0------------------------------|4-------------------4-------4--|
A|-------------------------------|----------------------------2--|
E|3------------------------------|2-------------------2----------|

e|3------ 3------ 3------ 3------|2------ 2------ 2------ -------|
B|3-------3-------3-------3------|3-------3-------3--------------|
G|0-------0-------0-------0------|3-------3-------3--------------|
D|0-------0-------0-------0------|0-------0-------0--------------|
A|2-------2-------2-------2------|-------------------------------|
E|3-------3-------3-------3------|2-------2-------2--------------|



                      Bm7     E

e|------- ------- ----2-- ----0--|------- ------- ------- -------|
B|--------------------3-------0--|-------------------------------|
G|--------------------2-------1--|-------------------------------|
D|--------------------4-------2--|-------------------------------|
A|--------------------2----------|-------------------------------|
E|----------------------------0--|-------------------------------|

e|2------ 2------ 2------ 2----0-|0----0- 0------ 0----0- 0----0-|
B|3-------3-------3-------3----0-|0----0--0-------0----0--0----0-|
G|4-------4-------2-------2----1-|1----1--1-------1----1--1----1-|
D|4-------4-------4-------4----2-|2----2--2-------2----2--2----2-|
A|2-------2-------2-------2----2-|2----2--2-------2----2--2----2-|
E|-----------------------------0-|0----0--0-------0----0--0----0-|



                      D       Em7                             A    

e|------- ------- ----2-- ----0--|------- ------- ----0-- ----5--|
B|--------------------3-------3--|--------------------3-------2--|
G|--------------------2-------0--|--------------------0-------2--|
D|--------------------0-------2--|--------------------2-------2--|
A|-------------------------------|----------------------------0--|
E|--------------------2-------0--|--------------------0----------|

e|3----3- ---3--- 2----2- ---0---|0------ 0------ 0------ 0------|
B|3----3-----3----3----3-----0---|0-------0-------0-------0------|
G|0----0-----0----2----2-----0---|0-------0-------0-------0------|
D|0----0-----0----0----0-----2---|2-------2-------2-------2------|
A|2----2-----2---------------2---|2-------2-------2-------2------|
E|3----3-----3---------------0---|0-------0-------0-------0------|




                              D
e|------- ------- ----5-- ----2--|
B|--------------------2-------3--|
G|--------------------2-------2--|
D|--------------------2-------0--|
A|--------------------0----------|
E|----------------------------2--|

e|0------ 0------ 0------ 0------|
B|2-------2-------2-------2------|
G|2-------2-------2-------2------|
D|2-------2-------2-------2------|
A|0-------0-------0-------0------|
E|-------------------------------|

e|------- ------- ------- -------|  George's
B|------------------------------13  vibraphone
G|------------------------10-11--|
D|-------------------------------|
A|-------------------------------|
E|-------------------------------|  




                      D       Dsus4            D5     Dsus4          
e|------- ------- ------- -------|------- -----5- ------- -------|
B|--------------------7-------8--|--------------------8----------|
G|--------------------7-------7--|-------------7------7----------|
D|--------------------0-------0--|-------------0------0----------|
A|-------------------------------|-------------------------------|
E|-------------------------------|-------------------------------|


e|2------ 2------ 2------ 2------|------- ------- ------- -------|
B|3-------3-------2-------2------|0-------0---2-------2---2------|
G|2-------2-------2-------2------|0-------0---2-------2---2------|
D|0-------0-------4-------4------|0-------0---2-------2---2------|
A|----------------4-------4------|------------0-------0---0------|
E|----------------2-------2------|3-------3----------------------|

e|------- ----10- ------- -------|------- ------- ------- -------|
B|-------------------------------|-------------------------------|
G|-------------------------------|-------------------------------|
D|-------------------------------|-------------------------------|
A|-------------------------------|-------------------------------|
E|-------------------------------|-------------------------------|

e|------- ------- ------- -------|------- ------- ------- -------| Brian Jones
B|--------7---10--7----7-------7-|-------------------------------| sax
G|7---9--------------------------|----------------9--------------|
D|-------------------------------|-------------------------------|
A|-------------------------------|-------------------------------|
E|-------------------------------|-------------------------------|




  D                                   Dsus4
e|------- ------- ------- -------|------- ------- ------- -------|
B|7---------------7----7---------|----8--------8-----------------|
G|7---------------7----7---------|----7--------7-----------------|
D|0---------------0----0---------|----0--------0-----------------|
A|-------------------------------|-------------------------------|
E|-------------------------------|-------------------------------|

e|2------ 2------ 2------ 2------|------- ----0-- 0----0- 0------|   
B|3-------3-------2-------2------|0-------0---2---2----2--2------|
G|2-------2-------2-------2------|0-------0---2---2----2--2------|
D|0-------0-------4-------4------|0-------0---2---2----2--2------|
A|----------------4-------4------|------------0---0----0--0------|
E|----------------2-------2------|3-------3----------------------|

e|------- ------- 5------ -------|------- ------- ------- -------|
B|----------------------------6/7|--------5--------------------12|
G|-------------------------------|-------------------------------|
D|--------7----------------------|-------------------------------|
A|-------------------------------|-------------------------------|
E|-------------------------------|-------------------------------|

e|------- ------- ------- -------|------- ------- ------- -------|
B|--------7---10--7----7-------7-|----7-----------7--------------|
G|7---9--------------------------|------------9--------9---------|
D|-------------------------------|-------------------------------|
A|-------------------------------|-------------------------------|
E|-------------------------------|-------------------------------|




                                               E9
e|------- ------- ------- -------|------- -----2- ------- -------|    
B|-------------------------------|-------------3-----------------|
G|-------------------------------|-------------4-----------------|
D|-------------------------------|-------------2-----------------|
A|-------------------------------|-------------------------------|
E|-------------------------------|-------------4-----------------|

e|2------ 2------ ------- -------|------- ------- 4------ 4------|
B|3-------3-------2-------2------|0-------0-------3-------3------|
G|2-------2-------2-------2------|0-------0-------4-------4------|
D|0-------0-------4-------4------|0-------0----------------------|
A|----------------4-------4------|-------------------------------|
E|----------------2-------2------|3-------3-------4-------4------|
                                       +          +            +
e|12----- ------- ------- 10-----|------- ------- ------- -------|   
B|-------------------------------|-------------------------------|
G|-------------------------------|----------------7------------7-|
D|-------------------------------|-----7-------------------------|
A|-------------------------------|-------------------------------|
E|-------------------------------|-------------------------------|

e|----12- ----10- ------- -------|13--12- 10----- 13-/12- 10-----|
B|--------------------12---------|----------------------------12-|
G|10-----------------------------|-------------------------------|
D|-------------------------------|-------------------------------|
A|-------------------------------|-------------------------------|
E|-------------------------------|-------------------------------|



                                                         (.
  A                                           D           D7
e|0------ 0------ 0------ -------|0------ 0---2-- ------- 2------|   
B|2-------2-------2--------------|2-------2---3-----------1------|
G|2-------2-------2--------------|2-------2---2-----------2------|
D|2-------2-------2--------------|2-------2---0-----------0------|
A|0-------0-------0--------------|0-------0----------------------|
E|-------------------------------|-------------------------------|
          +                        
e|------- ------- ------- -------|------- ------- ------7/8------|    
B|-------------------------------|--------------6H7--------------|
G|--------7----------------------|-------------------------------|
D|-------------------------------|-------------------------------|
A|-------------------------------|-------------------------------|
E|-------------------------------|-------------------------------|

e|13--12- 10----- 13--12- 10-----|10----- ------- ------- -------|
B|------------12--------------12-|------------12------H15P12H15P12
G|-------------------------------|-------------------------------|
D|-------------------------------|-------------------------------|
A|-------------------------------|-------------------------------|
E|-------------------------------|-------------------------------|
                                                          Oh yeah
  That's right,   dear                    that's  all







e|------- ------- ------- -------|------- ------- ------- -------|    
B|------5/6----------------------|-------------------------------|
G|-------------------------------|-------------------------------|
D|-------------------------------|-------------------------------|
A|-------------------------------|-------------------------------|
E|-------------------------------|-------------------------------|
  How about that?...(Grunting....................................)
                                                 (belch)
e|------- ------- ------- -------|------- ------- ------- -------|
BH15P12H15P12H-------------------|-------------------------------|
G|-------------------------------|-------------------------------|
D|-------------------------------|-------------------------------|
A|-------------------------------|-------------------------------|
E|-------------------------------|-------------------------------|









        B  Bend
        R  Release
        /  slide up
        \  slide down
        H  hammer-on
        P  pull-off
        ~  vibrato
        +  harmonic
        x  Mute note
        . - play note like a dot in standard notation
        ^ - ties two notes together
        (.  Pause
Comments