Beatles - Yesterday Chords & Tabs

 

Yesterday Chords & Tabs

Beatles Chords & Tabs

Version: 3 Type: Tab 3 ratings
1 star 2 stars 3 stars 4 stars 5 stars
comments

Yesterday Tab

   
#----------------------------------PLEASE NOTE---------------------------------#
#This file is the author's own work and represents their interpretation of the #
#song. You may only use this file for private study, scholarship, or research. #
#------------------------------------------------------------------------------##


Gtr I (E A D G B E) - 'Untitled'

   Verse
    Q=84
   4/4
    Gtr I
    E E E E E E E E   E E E E E E E E   E E E E E E E E   E E E E E E E E
||------------------|-----------0-2-3-|-2-0-0-----------|-----0-0---------|
||o-------------0---|-----0-2-4-------|-0-----0---------|---------3-1-0---|
||--2-0-0-----------|-----------------|-----0-----0---0-|---0-----------2-|
||--------0---0-----|---2-------------|---------2---0---|---------0-------|
||o-----------------|---------2-------|-----------------|-3---------------|
||--3-------3-----3-|-2---------------|-0---------------|-----------------|


                                                   Chorus
  E E E E E E E E   Q  E H    E   Q  E E +H         E E E E E E E E
|-----------------|-------------|----------------||-----------------|
|-1---0-0---------|----0--------|----0-0-(0)----o||-0-------0-------|
|---------------2-|-0----2------|-0--------------||-----2-------2---|
|---0-------0-----|----0------2-|------0-(0)-----||---2---2---1---1-|
|-----------------|------4----0-|-3-------------o||---------2-------|
|-3-------3---2---|-0-----------|------3-(3)-----||-2---------------|


  E E E E E E E E   E E E E Q  Q    E E E E S S S S E E   E E E E E E E E
|-0---2---3---2-0-|-2-----0----0--|---------------------|-----------------|
|---0---0---------|-----1---3--1--|-0-------------------|-0-------0-------|
|-----------0-----|---2--------2--|-----0---------------|-----2-------2---|
|-2---0-----------|---------0--0--|---0---0-3-2-0---0---|---2---2---1---1-|
|---------3---2---|-0-------------|---------------3-----|---------2-------|
|-----------------|---------------|-3-----------------3-|-2---------------|


  E E E E E E E E   E E E E Q  Q    Q  Q  Q  Q
|-0---2---3---2-0-|-2-----0----2--|-3-----------||
|---0---0---------|-----1---3--1--|-0--3--1--0--||
|-----------0-----|---2-----------|-------------||
|-2---0-----------|---------0--0--|-------2--0--||
|---------3---2---|-0-------------|-------------||
|-----------------|---------------|-3-----3-----||

[ Tab from: http://www.guitartabs.cc/tabs/b/beatles/yesterday_tab_ver_3.html ]
  E E E E E E E E   E E E E E E E E   E E E E E E E E   E E E E E E E E
|-----------------|-----------0-2-3-|-2-0-0-----------|-----0-0---------|
|-------------0---|-----0-2-4-------|-0-----0---------|---------3-1-0---|
|-2-0-0-----------|-----------------|-----0-----0---0-|---0-----------2-|
|-------0---0-----|---2-------------|---------2---0---|---------0-------|
|-----------------|---------2-------|-----------------|-3---------------|
|-3-------3-----3-|-2---------------|-0---------------|-----------------|


  E E E E E E E E   Q  E H    E   Q  E E +H
|-----------------|-------------|---------------|
|-1---0-0---------|----0--------|----0-0-(0)----|
|---------------2-|-0----2------|-0-------------|
|---0-------0-----|----0------2-|------0-(0)----|
|-----------------|------4----0-|-3-------------|
|-3-------3---2---|-0-----------|------3-(3)----|


 Outro
  H.=H
  Q  E H    E   Q  E E +H
|-------------|---------------*|
|----0--------|----0-0-(0)----*|
|-0----2------|-0-------------*|
|----0------2-|------0-(0)----*|
|------4----0-|-3-------------*|
|-0-----------|------3-(3)----*|


Duration Legend
---------------
W - whole; H - half; Q - quarter; E - 8th; S - 16th; T - 32nd; X - 64th; a - acciaccatura
+ - note tied to previous; . - note dotted; .. - note double dotted
Uncapitalized letters represent notes that are staccato (1/2 duration)
Irregular groupings are notated above the duration line
Duration letters will always appear directly above the note/fret number it represents the
duration for.  Duration letters with no fret number below them represent rests.  Multi-
bar rests are notated in the form Wxn, where n is the number of bars to rest for.  Low
melody durations appear below the staff

Tablature Legend
----------------
 h   - hammer-on
 p   - pull-off
 b   - bend
 pb  - pre-bend
 r   - bend release (if no number after the r, then release immediately)
 /\  - slide into or out of (from/to "nowhere")
 s   - legato slide
 S   - shift slide
  - natural harmonic
[n]  - artificial harmonic
n(n) - tapped harmonic
 ~   - vibrato
 tr  - trill
 T   - tap
 TP  - trem. picking
 PM  - palm muting
\n/  - tremolo bar dip; n = amount to dip
 \n  - tremolo bar down
 n/  - tremolo bar up
/n\  - tremolo bar inverted dip
 =   - hold bend; also acts as connecting device for hammers/pulls
   - volume swell (louder/softer)
 x   - on rhythm slash represents muted slash
 o   - on rhythm slash represents single note slash

Misc Legend
-----------
 |  - bar
||  - double bar
||o - repeat start
o|| - repeat end
*|  - double bar (ending)
 :  - bar (freetime)
 $  - Segno
 &  - Coda
Tempo markers -  = BPM(8/16=s8/s16), where s8 = swing 8ths, s16 = swing 16ths


***************************************************************************************
* Generated using Power Tab Editor by Brad Larsen - http://powertab.guitarnetwork.org *
***************************************************************************************
Comments