Beatles - Yesterday Chords & Tabs

 

Yesterday Chords & Tabs

Beatles Chords & Tabs

Version: 17 Type: Tab 0 ratings
1 star 2 stars 3 stars 4 stars 5 stars
comments

Yesterday Tab

   
-----------------------------------------------------------------------------           
YESTERDAY - The Beatles
-----------------------------------------------------------------------------
Tabbed by: Thomas Sacreas
Email:thomas_sacreas@hotmail.com

This is a fingerpicking tab, with the singing melody incorporated into the tab...
enjoy! (2 dashes per quarter note)

Tuning: standard

Verse
e|----------------|----0-2-4-5-7-8-|7-----5-5-------|----5-5-3-1-0---|
B|3-1-1-----------|--0-----0-------|----5-------5---|6---6---0-----3-|
G|------------0---|--2-------------|--5-------5---5-|--5-5---0-------|
D|----------2---2-|----------------|----------------|----------------|
A|3-------3-------|2---------------|0-------0-------|----0-----------|
E|------3---------|--------0-------|----------------|----------------|
[ Tab from: http://www.guitartabs.cc/tabs/b/beatles/yesterday_tab_ver_17.html ]
e|1-----0-0-------|----0-----------|------0-0-------|
B|------------3---|1-------3-------|1-----------1---|
G|----0-----0---0-|--2---0-------2-|----2-----0---0-|
D|--0-------------|------------0---|--3---------2---|
A|--------3---2---|0---------0-----|--------3-------|
E|3---------------|----3---2-------|1---------------|

Chorus
e|0-------0-----0-|5---7---8---7-5-|7-----5-3-5-----|0-------0-------|
B|----3-------0---|--------6-------|----0---0-------|----1-----1-----|
G|--2---2---1-----|----------------|--0-----0-------|--0---0-----0---|
D|0---------------|----------------|0-----------0---|--------------2-|
A|----------------|--0---0---0-----|----------------|3---------------|
E|--------0-------|----------------|----------------|----------------|

e|------0-------0-|5---7---8---7-5-|7-----5-3---7---|8---3---1---0---|
B|----3-------0---|--------6-------|----0---0-0-----|----------------|
G|--2-------1-----|----------------|--0-----0-------|--0---0---0---0-|
D|0---------------|----------------|0---------------|----------------|
A|----------------|--0---0---0-----|----------------|----------------|
E|--------0-------|----------------|----------------|----------------|

The song is played verse, verse, chorus, verse.

| /  slide up
| \  slide down
| h  hammer-on
| p  pull-off
| ~  vibrato
| +  harmonic
| x  Mute note
=============================================================================
Comments