Beatles - Yesterday Chords & Tabs

 

Beatles Chords & Tabs

Version: 1 Type: Tab 5 ratings
1 star 2 stars 3 stars 4 stars 5 stars
comments

Yesterday Tab

Yesterday by the Beatles
Tabbed by Paul Baxter

#-------------------------------PLEASE NOTE------------------------------------#
#This file is the author's own work and represents their interpretation of the #
#song. You may only use this file for private study, scholarship, or research. #
#------------------------------------------------------------------------------#
#Staff         : Guitar
#Tempo         : 120
#Time Division : 4/4
#Neck          : Guitar 
#------------------------------------------------------------------------------#


E |-------------|-------------|----------------|----------0-2-3-|
B |----0--------|----0-0------|--------------0-|----0-2-4-------|
G |-0-----2-----|-0-----------|-2-0-0------0---|----2-----------|
D |-0--------2--|----------0--|----------0-----|----2-----------|
A |-------4-----|-3-----------|----------------|--------2-------|
E |-------------|----3-3------|-3------3-------|-2--------------|

|-2--0-0---0---0-|----0-0---------|--------------|-------------|---------------|
|----0-0---0---0-|--------3-1-0---|----0-0-------|----0--------|----0-0------0-|
|----------------|----0---------2-|-5--0-0----2--|-0-----2-----|-0---------0---|
|--------2---0---|--------0-------|--------------|-------2--2--|---------0-----|
|----------------|-3--------------|--------------|-------0-----|-3-------------|
|-0--------------|----------------|-3------3--2--|-0-----------|----3-3--------|

|----------------|----------0-2-3-|-2--0-0---0---0-|----0-0---------|
|--------------0-|----0-2-4-------|----0-0---0---0-|--------3-1-0---|
|-2-0-0------0---|----2-----------|----------------|----0---------2-|
|----------0-----|----2-----------|--------2---0---|--------0-------|
|----------------|--------2-------|----------------|-3--------------|
|-3------3-------|-2--------------|-0--------------|----------------|
[ Tab from: http://www.guitartabs.cc/tabs/b/beatles/yesterday_tab.html ]
|--------------|-------------|---------------|--------------|-0--2--3--2-0-|
|----0-0-------|----0--------|----0-0------0-|-0-----0------|--------------|
|-5--0-0----2--|-0-----2-----|-0---------0---|-2----------2-|--------------|
|--------------|-------2--2--|---------0-----|----2-----1---|-2--0---------|
|--------------|-------0-----|-3-------------|-------2------|-------3--2---|
|-3------3--2--|-0-----------|----3-3--------|-0------------|--------------|

|-2----0----0---|-----------------|--------------|-0--2--3--2-0-|
|----1---3----0-|-------0-1---0---|-0-----0------|--------------|
|----2----------|-----0---------0-|-2----------2-|--------------|
|--------0------|---0-----0-0-----|----2-----1---|-2--0---------|
|-0-------------|-----------------|-------2------|-------3--2---|
|---------------|-3---------------|-2------------|--------------|

|-2-----0----2--|-3--------------|----------------|----------0-2-3-|
|-----1---3-----|-0--3---1---0---|--------------0-|----0-2-4-------|
|---2--------2--|-0--------------|-2-0-0------0---|----2-----------|
|---------0-----|-0----0---0---0-|----------0-----|----2-----------|
|-0-------------|-2--------------|----------------|--------2-------|
|---------------|-3--------------|-3------3-------|-2--------------|

|-2--0-0---0---0-|----0-0---------|--------------|-------------|---------------|
|----0-0---0---0-|--------3-1-0---|----0-0-------|----0--------|----0-0------0-|
|----------------|----0---------2-|-5--0-0----2--|-0-----2-----|-0---------0---|
|--------2---0---|--------0-------|--------------|-------2--2--|---------0-----|
|----------------|-3--------------|--------------|-------0-----|-3-------------|
|-0--------------|----------------|-3------3--2--|-0-----------|----3-3--------|

|-------------|------------|
|----0--------|----0-0-----|
|-0-----2-----|-0----------|
|-0--------2--|------------|
|-------4-----|-3----------|
|-------------|----3-3-----|


Comments