Beatles - Yesterday Chords & Tabs

 

Yesterday Chords & Tabs

Beatles Chords & Tabs

Version: 1 Type: Bass Tab 4 ratings
1 star 2 stars 3 stars 4 stars 5 stars
comments

Yesterday Bass Tab

   
Title: Yesterday
Written by: Paul McCartney
Tabbed by: Ben Gonzalez
Tune Down one whole step to (D G C F A D)
                                                        
Verse 1: No bass 
     
Verse 2:
G|----------------------------------------------------------------------------------------------
D|----------------------------------------------------------------------------------------------
A|--------------------0--2---2---------5--3-----3--5-----0--3--2---0-----2-0----------2--2------
E|-----3----3-----2-------------0--0-------------------------------------3---------0---3--------

[ Tab from: http://www.guitartabs.cc/tabs/b/beatles/yesterday_btab.html ]
  Chorus
G|-------------------------------------------------------------------------
D|------------2--4--5--4--2--4--2--0--2------0-----------------------------
A|--2---2-----------------------------------2-----2--0---------------------
E|-------------------------------------------------------------------------


G|-------------------------------------------------------------------------
D|------------2--4--5--4--2--4--2--0--4--5--0------------------------------
A|---2---2------------------------------------------3--2-------------------
E|-------------------------------------------------------------------------

Verse 

Chorus

Verse

Ending no bass
Comments