Beatles - Yellow Submarine Chords & Tabs

 

Yellow Submarine Chords & Tabs

Beatles Chords & Tabs

Version: 4 Type: Tab 0 ratings
1 star 2 stars 3 stars 4 stars 5 stars
comments

Yellow Submarine Tab

             Yellow Submarine


--------------------------------------------------------------------|
------1----3--------------------------------------------------------|
--3--------------3---2-3---0-------3---3-2-0-----------3---3--2-----|
---------------------------------------------3---3------------------|
--------------------------------------------------------------------|
--------------------------------------------------------------------|
  in the town, where i was born, lived a maaan, who sailed to sea

--------------------------------------------------------------------|
------1----3--------------------------------------------------------|
--3------------3--2--3---0------3--3---2-0--------3-3-2-------------|
--------------------------------------------3---3-------------------|
--------------------------------------------------------------------|
--------------------------------------------------------------------|
  and he told us of his life,  in the land of submarine

-----------------------------------------------------------------------|
------1---3------------------------------------------------------------|
--3------------3--2---3--0-----3---3---2-0----------3-3-2--------------|
---------------------------------------------3---3---------------------|
-----------------------------------------------------------------------|
-----------------------------------------------------------------------|
  so we sailed up to the sun, till we found the sea of green


--------------------------------------------------------------------|
------1---3---------------------------------------------------------|
--3------------3--2-----3---0-----3---3---2-0-------3-3-2-----------|
----------------------------------------------3---3-----------------|
--------------------------------------------------------------------|
--------------------------------------------------------------------|
  and we lived beneath the waves, in our yellow submarine


--------------------------------------------------------------------|
3---3---3---3--4----------------------------------------------------|
--------------------3-3-3-3-3--------3-3-3-3-3----------0-0-0-0-0---|
--------------------------------------------------------------------|
--------------------------------------------------------------------|
--------------------------------------------------------------------|
we all live in a yellow submarine, yellow submarine, yellow submarine

--------------------------------------------------------------------|
3---3---3---3--4----------------------------------------------------|
--------------------3-3-3-3-3--------3-3-3-3-3----------0-0-0-0-0---|
--------------------------------------------------------------------|
--------------------------------------------------------------------|
--------------------------------------------------------------------|
we all live in a yellow submarine, yellow submarine, yellow submarine

--------------------------------------------------------------------|
------1----3--------------------------------------------------------|
--3--------------3---2--3---0-------3---3-2-0-----------3---3--2----|
-----------------------------------------------3---3----------------|
--------------------------------------------------------------------|
--------------------------------------------------------------------|
 and our friends are all on bord, many more of them live next door

---------------------------------|
------1----3---------------------|
--3--------------3---2--3---0----|
---------------------------------|          BAND PLAYS
---------------------------------|
---------------------------------|
  and the band  begins  to play
[ Tab from: http://www.guitartabs.cc/tabs/b/beatles/yellow_submarine_tab_ver_4.html ]
--------------------------------------------------------------------|
3---3---3---3--4----------------------------------------------------|
--------------------3-3-3-3-3--------3-3-3-3-3----------0-0-0-0-0---|
--------------------------------------------------------------------|
--------------------------------------------------------------------|
--------------------------------------------------------------------|
we all live in a yellow submarine, yellow submarine, yellow submarine

--------------------------------------------------------------------|
3---3---3---3--4----------------------------------------------------|
--------------------3-3-3-3-3--------3-3-3-3-3----------0-0-0-0-0---|
--------------------------------------------------------------------|
--------------------------------------------------------------------|
--------------------------------------------------------------------|
we all live in a yellow submarine, yellow submarine, yellow submarine

--------------------------------------------------------------------|
------1---3---------------------------------------------------------|
--3-----------3--2---3---0-----3--3-2--0---------3---3--2-----------|
------------------------------------------3---3---------------------|
--------------------------------------------------------------------|
--------------------------------------------------------------------|
  and we live a life of ease, everyone of us has all we need

--------------------------------------------------------------------|
------1---3---------------------------------------------------------|
--3--------------3--2--3---0-----3---3---2-0------3-3-2-------------|
---------------------------------------------3--3-------------------|
--------------------------------------------------------------------|
--------------------------------------------------------------------|
  sky of blue, and sea of green, in our yellow submarine

--------------------------------------------------------------------|
3---3---3---3--4----------------------------------------------------|
--------------------3-3-3-3-3--------3-3-3-3-3----------0-0-0-0-0---|
--------------------------------------------------------------------|
--------------------------------------------------------------------|
--------------------------------------------------------------------|
we all live in a yellow submarine, yellow submarine, yellow submarine

--------------------------------------------------------------------|
3---3---3---3--4----------------------------------------------------|
--------------------3-3-3-3-3--------3-3-3-3-3----------0-0-0-0-0---|
--------------------------------------------------------------------|
--------------------------------------------------------------------|
--------------------------------------------------------------------|
we all live in a yellow submarine, yellow submarine, yellow submarine

--------------------------------------------------------------------|
3---3---3---3--4----------------------------------------------------|
--------------------3-3-3-3-3--------3-3-3-3-3----------0-0-0-0-0---|
--------------------------------------------------------------------|
--------------------------------------------------------------------|
--------------------------------------------------------------------|
we all live in a yellow submarine, yellow submarine, yellow submarine

--------------------------------------------------------------------|
3---3---3---3--4----------------------------------------------------|
--------------------3-3-3-3-3--------3-3-3-3-3----------0-0-0-0-0---|
--------------------------------------------------------------------|
--------------------------------------------------------------------|
--------------------------------------------------------------------|
we all live in a yellow submarine, yellow submarine, yellow submarine


hope u have fun!!
any questions or comments
         modestodeathcruz@yahoo.com
Comments