Beatles - Yellow Submarine Chords & Tabs

 

Yellow Submarine Chords & Tabs

Beatles Chords & Tabs

Version: 3 Type: Tab

Yellow Submarine Tab

e|-----------|--------------|--------------|--------------|-------------|
B|--0--1--3--|--0-----0-----|--0--0--------|--------0--0--|-------------|
G|-----------|-----2-----0--|--------2--0--|--------------|--2----------|
D|-----------|--------------|--------------|--2--2--------|-------------|
A|-----------|--------------|--------------|--------------|-------------|
E|-----------|--------------|--------------|--------------|-------------|

[ Tab from: http://www.guitartabs.cc/tabs/b/beatles/yellow_submarine_tab_ver_3.html ]
e|--------------|--0-----------|---------------|--------------|-------------|
B|--3--3--3--3--|--------------|---------------|--------------|-------------|
G|--------------|-----2--2--2--|--2--2--2--2---|--2--2--2--0--|--0--0--0--0-|
D|--------------|--------------|---------------|--------------|-------------|
A|--------------|--------------|---------------|--------------|-------------|
E|--------------|--------------|---------------|--------------|-------------|



Play the top part four time then the bottom twice, its not in rhythm no listen to the
song. By the way this my first tab, posted by Dylan Foy.