Beatles - Ya Ya Chords & Tabs

 

Ya Ya Chords & Tabs

Beatles Chords & Tabs

Version: 2 Type: Bass Tab 0 ratings
1 star 2 stars 3 stars 4 stars 5 stars
comments

Ya Ya Bass Tab

YA YA

The Beatles (Tony Sheridan & The Beat Brothers)
From The Beatles In The Beginning

INTRO

G|---------------------------------|---------------------------------|
D|---------------------------------|---------------------------------|
A|-----------------4---------------|-----------------7---------------|
E|-5-------------------------------|-7-------------------------------|

G|---------------------------------|---------------------------------|
D|-7-------------------------------|---------------------------------|
A|---------------------------------|---------------------------------|
E|---------------------------------|---------------------------------|

VERSE

G|---------------------------------|---------------------------------|
D|---------------------------------|-------------4---7-------4-------|
A|-------------4---7-------4-------|-5-------------------------------|
E|-5-------------------------------|---------------------------------|

G|---------------------------------|---------------------------------|
D|---------------------------------|---------------------------------|
A|-------------4---7-------4-------|-----------------4-------5-------|
E|-5-------------------------------|-5-----------7-------------------|

G|---------------------------------|---------------------------------|
D|-------------4---7-------4-------|-------------4---7-------4-------|
A|-5-------------------------------|-5-------------------------------|
E|---------------------------------|---------------------------------|

G|---------------------------------|---------------------------------|
D|---------------------------------|---------------------------------|
A|-------------4---7-------4-------|-------------4---7-------4-------|
E|-5-------------------------------|-5-------------------------------|

G|---------------------------------|---------------------------------|
D|-------------6---9-------6-------|-------------4---7-------4-------|
A|-7-------------------------------|-5-------------------------------|
E|---------------------------------|---------------------------------|

G|---------------------------------|---------------------------------|
D|---------------------------------|---------------------------------|
A|-------------4---7-------4-------|-------------4---7-------4-------|
E|-5-------------------------------|-5-------------------------------|

VERSE

G|---------------------------------|---------------------------------|
D|---------------------------------|-------------4---7-------4-------|
A|-----------------4-------5-------|-5-------------------------------|
E|-5-----------7-------------------|---------------------------------|

G|---------------------------------|---------------------------------|
D|---------------------------------|---------------------------------|
A|-------------4---7-------4-------|-----------------4-------5-------|
E|-5-------------------------------|-5-----------7-------------------|

G|---------------------------------|---------------------------------|
D|-------------4---7-------4-------|-------------4---7-------4-------|
A|-5-------------------------------|-5-------------------------------|
E|---------------------------------|---------------------------------|

G|---------------------------------|---------------------------------|
D|---------------------------------|---------------------------------|
A|-------------4---7-------4-------|-------------4---7-------4-------|
E|-5-------------------------------|-5-------------------------------|

G|---------------------------------|---------------------------------|
D|-------------6---9-------6-------|-------------4---7-------4-------|
A|-7-------------------------------|-5-------------------------------|
E|---------------------------------|---------------------------------|

G|---------------------------------|---------------------------------|
D|---------------------------------|---------------------------------|
A|-------------4---7-------4-------|-------------4---7-------4-------|
E|-5-------------------------------|-5-------------------------------|

VERSE

G|---------------------------------|---------------------------------|
D|---------------------------------|-------------4---7-------4-------|
A|-----------------4-------5-------|-5-------------------------------|
E|-5-----------7-------------------|---------------------------------|

G|---------------------------------|---------------------------------|
D|---------------------------------|---------------------------------|
A|-------------4---7-------4-------|-----------------4-------5-------|
E|-5-------------------------------|-5-----------7-------------------|

G|---------------------------------|---------------------------------|
D|-------------4---7-------4-------|-------------4---7-------4-------|
A|-5-------------------------------|-5-------------------------------|
E|---------------------------------|---------------------------------|

G|---------------------------------|---------------------------------|
D|---------------------------------|---------------------------------|
A|-------------4---7-------4-------|-------------4---7-------4-------|
E|-5-------------------------------|-5-------------------------------|

G|---------------------------------|---------------------------------|
D|-------------6---9-------6-------|-------------4---7-------4-------|
A|-7-------------------------------|-5-------------------------------|
E|---------------------------------|---------------------------------|

G|---------------------------------|---------------------------------|
D|---------------------------------|---------------------------------|
A|-------------4---7-------4-------|-------------4---7-------4-------|
E|-5-------------------------------|-5-------------------------------|

KEYBOARD SOLO

G|---------------------------------|---------------------------------|
D|---------------------------------|---------4-------7-------4-------|
A|---------4-------7-------4-------|-5-------------------------------|
E|-5-------------------------------|---------------------------------|

G|---------------------------------|---------------------------------|
D|---------------------------------|---------------------------------|
A|-------------4---7-------4-------|-----------------4-------5-------|
E|-5-------------------------------|-5-----------7-------------------|

G|---------------------------------|---------------------------------|
D|-------------4---7-------4-------|-------------4---7-------4-------|
A|-5-------------------------------|-5-------------------------------|
E|---------------------------------|---------------------------------|

G|---------------------------------|---------------------------------|
D|---------------------------------|---------------------------------|
A|---------4-------7-------4-------|---------4-------7-------4-------|
E|-5-------------------------------|-5-------------------------------|

G|---------------------------------|---------------------------------|
D|-------------6---9-------6-------|-------------4---7-------4-------|
A|-7-------------------------------|-5-------------------------------|
E|---------------------------------|---------------------------------|

G|---------------------------------|---------------------------------|
D|---------------------------------|---------------------------------|
A|-------------4---7-------4-------|-7-------7-------7-------7-------|
E|-5-------------------------------|---------------------------------|

G|---------------------------------|---------------------------------|
D|---------------------------------|---------4-------7-------4-------|
A|---------4-------7-------4-------|-5-------------------------------|
E|-5-------------------------------|---------------------------------|

G|---------------------------------|---------------------------------|
D|---------------------------------|---------------------------------|
A|-------------4---7-------4-------|-------------4---7-------4-------|
E|-5-------------------------------|-5-------------------------------|

G|---------------------------------|---------------------------------|
D|-------------4---7-------4-------|-------------4---7-------4-------|
A|-5-------------------------------|-5-------------------------------|
E|---------------------------------|---------------------------------|

G|---------------------------------|---------------------------------|
D|-------------------------4-------|---------------------------------|
A|-------------4---7---------------|---------4-------7-------4-------|
E|-5-------------------------------|-5-------------------------------|

G|---------------------------------|---------------------------------|
D|-------------6---9-------6-------|-------------4---7-------4-------|
A|-7-------------------------------|-5-------------------------------|
E|---------------------------------|---------------------------------|

G|---------------------------------|---------------------------------|
D|---------------------------------|---------------------------------|
A|-------------4---7-------4-------|-------------4---7-------4-------|
E|-5-------------------------------|-5-------------------------------|

VERSE

G|---------------------------------|---------------------------------|
D|---------------------------------|-------------4---7-------4-------|
A|-------------4---7-------4-------|-5-------------------------------|
E|-5-------------------------------|---------------------------------|

G|---------------------------------|---------------------------------|
D|---------------------------------|---------------------------------|
A|-------------4---7-------4-------|-----------------4-------5-------|
E|-5-------------------------------|-5-----------7-------------------|

G|---------------------------------|---------------------------------|
D|-------------4---7-------4-------|-------------4---7-------4-------|
A|-5-------------------------------|-5-------------------------------|
E|---------------------------------|---------------------------------|

G|---------------------------------|---------------------------------|
D|---------------------------------|---------------------------------|
A|-------------4---7-------4-------|-------------4---7-------4-------|
E|-5-------------------------------|-5-------------------------------|

G|---------------------------------|---------------------------------|
D|-------------6---9-------6-------|-------------4---7-------4-------|
A|-7-------------------------------|-5-------------------------------|
E|---------------------------------|---------------------------------|

G|---------------------------------|---------------------------------|
D|---------------------------------|---------------------------------|
A|-------------4---7-------4-------|-------------4---7-------4-------|
E|-5-------------------------------|-5-------------------------------|

VERSE

G|---------------------------------|---------------------------------|
D|---------------------------------|-------------4---7-------4-------|
A|-----------------4-------5-------|-5-------------------------------|
E|-5-----------7-------------------|---------------------------------|

G|---------------------------------|---------------------------------|
D|---------------------------------|---------------------------------|
A|-------------4---7-------4-------|-----------------4-------5-------|
E|-5-------------------------------|-5-----------7-------------------|

G|---------------------------------|---------------------------------|
D|-------------4---7-------4-------|-------------4---7-------4-------|
A|-5-------------------------------|-5-------------------------------|
E|---------------------------------|---------------------------------|

G|---------------------------------|---------------------------------|
D|---------------------------------|---------------------------------|
A|-------------4---7-------4-------|-------------4---7-------4-------|
E|-5-------------------------------|-5-------------------------------|

G|---------------------------------|---------------------------------|
D|-------------6---9-------6-------|-------------4---7-------4-------|
A|-7-------------------------------|-5-------------------------------|
E|---------------------------------|---------------------------------|

G|---------------------------------|---------------------------------|
D|---------------------------------|---------------------------------|
A|-------------4---7-------4-------|-------------4---7-------4-------|
E|-5-------------------------------|-5-------------------------------|

VERSE

G|---------------------------------|---------------------------------|
D|---------------------------------|-------------4---7-------4-------|
A|-------------4---7-------4-------|-5-------------------------------|
E|-5-------------------------------|---------------------------------|

G|---------------------------------|---------------------------------|
D|---------------------------------|---------------------------------|
A|-------------4---7-------4-------|-----------------4-------5-------|
E|-5-------------------------------|-5-----------7-------------------|

G|---------------------------------|---------------------------------|
D|-------------4---7-------4-------|-------------4---7-------4-------|
A|-5-------------------------------|-5-------------------------------|
E|---------------------------------|---------------------------------|

G|---------------------------------|---------------------------------|
D|---------------------------------|---------------------------------|
A|-------------4---7-------4-------|-------------4---7-------4-------|
E|-5-------------------------------|-5-------------------------------|

G|---------------------------------|---------------------------------|
D|-------------6---9-------6-------|-------------4---7-------4-------|
A|-7-------------------------------|-5-------------------------------|
E|---------------------------------|---------------------------------|
[ Tab from: http://www.guitartabs.cc/tabs/b/beatles/ya_ya_btab_ver_2.html ]
G|---------------------------------|---------------------------------|
D|---------------------------------|---------------------------------|
A|-------------4---7-------4-------|-------------4---7-------4-------|
E|-5-------------------------------|-5-------------------------------|

FALSE OUTRO

G|---------------------------------|---------------------------------|
D|---------------------------------|---------------------------------|
A|-------------4---7-------4-------|-------------4---7-------4-------|
E|-5-------------------------------|-5-------------------------------|

G|---------------------------------|---------------------------------|
D|---------------------------------|---------------------------------|
A|-------------4---7-------4-------|-------------4---7-------4-------|
E|-5-------------------------------|-5-------------------------------|

G|---------------------------------|---------------------------------|
D|---------------------------------|---------------------------------|
A|-------------4---7-------4-------|-------------4---7-------4-------|
E|-5-------------------------------|-5-------------------------------|

One more time!

VERSE

G|---------------------------------|---------------------------------|
D|---------------------------------|-------------4---7-------4-------|
A|-------------4---7-------4-------|-5-------------------------------|
E|-5-------------------------------|---------------------------------|

G|---------------------------------|---------------------------------|
D|---------------------------------|---------------------------------|
A|-------------4---7-------4-------|-----------------4-------5-------|
E|-5-------------------------------|-5-----------7-------------------|

G|---------------------------------|---------------------------------|
D|-------------4---7-------4-------|-------------4---7-------4-------|
A|-5-------------------------------|-5-------------------------------|
E|---------------------------------|---------------------------------|

G|---------------------------------|---------------------------------|
D|---------------------------------|---------------------------------|
A|-------------4---7-------4-------|-------------4---7-------4-------|
E|-5-------------------------------|-5-------------------------------|

G|---------------------------------|---------------------------------|
D|-------------6---9-------6-------|-------------4---7-------4-------|
A|-7-------------------------------|-5-------------------------------|
E|---------------------------------|---------------------------------|

G|---------------------------------|---------------------------------|
D|---------------------------------|---------------------------------|
A|-------------4---7-------4-------|-------------4---7-------4-------|
E|-5-------------------------------|-5-------------------------------|

VERSE

G|---------------------------------|---------------------------------|
D|---------------------------------|-------------4---7-------4-------|
A|-------------4---7-------4-------|-5-------------------------------|
E|-5-------------------------------|---------------------------------|

G|---------------------------------|---------------------------------|
D|---------------------------------|---------------------------------|
A|-------------4---7-------4-------|-----------------4-------5-------|
E|-5-------------------------------|-5-----------7-------------------|

G|---------------------------------|---------------------------------|
D|-------------4---7-------4-------|-------------4---7-------4-------|
A|-5-------------------------------|-5-------------------------------|
E|---------------------------------|---------------------------------|

G|---------------------------------|---------------------------------|
D|---------------------------------|---------------------------------|
A|-------------4---7-------4-------|-------------4---7-------4-------|
E|-5-------------------------------|-5-------------------------------|

G|---------------------------------|---------------------------------|
D|-------------6---9-------6-------|-------------4---7-------4-------|
A|-7-------------------------------|-5-------------------------------|
E|---------------------------------|---------------------------------|

G|---------------------------------|---------------------------------|
D|---------------------------------|---------------------------------|
A|-------------4---7-------4-------|-------------4---7-------4-------|
E|-5-------------------------------|-5-------------------------------|

VERSE

G|---------------------------------|---------------------------------|
D|---------------------------------|-------------4---7-------4-------|
A|-------------4---7-------4-------|-5-------------------------------|
E|-5-------------------------------|---------------------------------|

G|---------------------------------|---------------------------------|
D|-7-------------------------------|-7-------------------------------|
A|-------------4---7-------4-------|-----------------4-------5-------|
E|---------------------------------|-------------7-------------------|

G|---------------------------------|---------------------------------|
D|-------------4---7-------4-------|-------------4---7-------4-------|
A|-5-------------------------------|-5-------------------------------|
E|---------------------------------|---------------------------------|

G|---------------------------------|---------------------------------|
D|-7-------------------------------|-7-------------------------------|
A|-------------4---7-------4-------|-------------4---7-------4-------|
E|---------------------------------|---------------------------------|

G|---------------------------------|---------------------------------|
D|-------------6---9-------6-------|---------------------------------|
A|-7-------------------------------|-5-----------4---3-------2-------|
E|---------------------------------|---------------------------------|

G|---------------------------------|---------------------------------|
D|---------------------------------|---------------------------------|
A|-------------4---7-------4-------|-------------4---7-------4-------|
E|-5-------------------------------|-5-------------------------------|

GUITAR SOLO

G|---------------------------------|---------------------------------|
D|---------------------------------|---------4-------7-------4-------|
A|---------4-------7-------4-------|-5-------------------------------|
E|-5-------------------------------|---------------------------------|

G|---------------------------------|---------------------------------|
D|---------------------------------|---------------------------------|
A|---------4-------7-------4-------|-----------------4-------5-------|
E|-5-------------------------------|-5-------7-----------------------|

G|---------------------------------|---------------------------------|
D|-------------4---7-------4-------|-------------4---7-------4-------|
A|-5-------------------------------|-5-------------------------------|
E|---------------------------------|---------------------------------|

G|---------------------------------|---------------------------------|
D|---------------------------------|---------------------------------|
A|-------------4---7-------4-------|-------------4---7-------4-------|
E|-5-------------------------------|-5-------------------------------|

G|---------------------------------|---------------------------------|
D|-------------6---9-------6-------|-------------4---7-------4-------|
A|-7-------------------------------|-5-------------------------------|
E|---------------------------------|---------------------------------|

G|---------------------------------|---------------------------------|
D|---------------------------------|---------------------------------|
A|---------4-------7-------4-------|-----------------4-------5-------|
E|-5-------------------------------|-5-------7-----------------------|

G|---------------------------------|---------------------------------|
D|---------------------------------|---------4-------7-------4-------|
A|---------4-------7-------4-------|-5-------------------------------|
E|-5-------------------------------|---------------------------------|

G|---------------------------------|---------------------------------|
D|---------------------------------|---------------------------------|
A|---------4-------7-------4-------|-----------------4-------5-------|
E|-5-------------------------------|-5-------7-----------------------|

G|---------------------------------|---------------------------------|
D|---------4-------7-------4-------|---------4-------7-------4-------|
A|-5-------------------------------|-5-------------------------------|
E|---------------------------------|---------------------------------|

G|---------------------------------|---------------------------------|
D|---------------------------------|---------------------------------|
A|----------4------7-------4-------|---------4-------7-------4-------|
E|-5-------------------------------|-5-------------------------------|

G|---------------------------------|---------------------------------|
D|---------6-------9-------6-------|---------4-------7-------4-------|
A|-7-------------------------------|-5-------------------------------|
E|---------------------------------|---------------------------------|

G|---------------------------------|---------------------------------|
D|---------------------------------|---------------------------------|
A|---------4-------7-------4-------|-----------------4-------5-------|
E|-5-------------------------------|-5-------7-----------------------|

VERSE

G|---------------------------------|---------------------------------|
D|---------------------------------|-------------4---7-------4-------|
A|-------------4---7-------4-------|-5-------------------------------|
E|-5-------------------------------|---------------------------------|

G|---------------------------------|---------------------------------|
D|---------------------------------|---------------------------------|
A|-------------4---7-------4-------|-----------------4-------5-------|
E|-5-------------------------------|-5-----------7-------------------|

G|---------------------------------|---------------------------------|
D|-------------4---7-------4-------|-------------4---7-------4-------|
A|-5-------------------------------|-5-------------------------------|
E|---------------------------------|---------------------------------|

G|---------------------------------|---------------------------------|
D|---------------------------------|---------------------------------|
A|-------------4---7-------4-------|-------------4---7-------4-------|
E|-5-------------------------------|-5-------------------------------|

G|---------------------------------|---------------------------------|
D|-------------6---9-------6-------|-------------4---7-------4-------|
A|-7-------------------------------|-5-------------------------------|
E|---------------------------------|---------------------------------|

G|---------------------------------|---------------------------------|
D|---------------------------------|---------------------------------|
A|-------------4---7-------4-------|-------------4---7-------4-------|
E|-5-------------------------------|-5-------------------------------|

VERSE

G|---------------------------------|---------------------------------|
D|---------------------------------|-------------4---7-------4-------|
A|-------------4---7-------4-------|-5-------------------------------|
E|-5-------------------------------|---------------------------------|

G|---------------------------------|---------------------------------|
D|---------------------------------|---------------------------------|
A|-------------4---7-------4-------|-----------------4-------5-------|
E|-5-------------------------------|-5-------7-----------------------|

G|---------------------------------|---------------------------------|
D|-------------4---7-------4-------|-------------4---7-------4-------|
A|-5-------------------------------|-5-------------------------------|
E|---------------------------------|---------------------------------|

G|---------------------------------|---------------------------------|
D|---------------------------------|---------------------------------|
A|-------------4---7-------4-------|-------------4---7-------4-------|
E|-5-------------------------------|-5-------------------------------|

G|---------------------------------|---------------------------------|
D|-------------6---9-------6-------|-------------4---7-------4-------|
A|-7-------------------------------|-5-------------------------------|
E|---------------------------------|---------------------------------|

G|---------------------------------|---------------------------------|
D|---------------------------------|---------------------------------|
A|-------------4---7-------4-------|-------------4---7-------4-------|
E|-5-------------------------------|-5-------------------------------|

OUTRO

G|---------------------------------|---------------------------------|
D|---------------------------------|---------------------------------|
A|-------------4---7-------4-------|-------------4---7-------4-------|
E|-5-------------------------------|-5-------------------------------|

G|---------------------------------|---------------------------------|
D|---------------------------------|---------------------------------|
A|-------------4---7-------4-------|-------------4---7-------4-------|
E|-5-------------------------------|-5-------------------------------|

G|---------------------------------|---------------------------------|
D|---------------------------------|---------------------------------|
A|-------------4---7-------4-------|-------------4---7-------4-------|
E|-5-------------------------------|-5-------------------------------|

G|---------------------------------|---------------------------------|
D|---------------------------------|-------------7-----------7-------|
A|---------------------------------|-----4---7-----------------------|
E|-5-------5-------5-------5-------|-5-------------------------------|
Comments