Beatles - With A Little Help From My Friends Chords & Tabs

 

With A Little Help From My Friends Chords & Tabs

Beatles Chords & Tabs

Version: 2 Type: Tab 0 ratings
1 star 2 stars 3 stars 4 stars 5 stars
comments

With A Little Help From My Friends Tab

With a little help from my friends - the beatles
Tabbed by me

The "what wold you do if i sang out of tune" part.

E|--------------------------------------|
B|-0-1-3-3-1-0---0-1-1-1-1-0-----------0|
G|-------------2-------------2-2-2-0-2--|
D|--------------------------------------|
A|--------------------------------------|
E|--------------------------------------|

Repeat

The "I get by with a little help from my friends" part

E|--------------------|
B|-3---0--------------|
G|---0---2-0-0-0-0-0-0|
D|--------------------|
A|--------------------|
E|--------------------|

Repeat x2

The "Do you need anbody? I need someody to love." part

E|---0-3-3-3-2-0---------------|
B|-3----------------0-0---0----|
G|----------------2-----2---2-0|
D|-----------------------------|
A|-----------------------------|
E|-----------------------------|

repeat

Lyrics:
[ Tab from: http://www.guitartabs.cc/tabs/b/beatles/with_a_little_help_from_my_friends_tab_ver_2.html ]
What would you think if I sang out of tune,
Would you stand up and walk out on me.
Lend me your ears and I'll sing you a song,
And I'll try not to sing out of key.
I get by with a little help from my friends,
I get high with a little help from my friends,
Going to try with a little help from my friends.
What do I do when my love is away.
(does it worry you to be alone)
How do I feel by the end of the day
(are you sad because you're on your own)
No I get by with a little help from my friends,
Do you need anybody,
I need somebody to love.
Could it be anybody
I want somebody to love.
Would you believe in a love at first sight,
Yes I'm certain that it happens all the time.
What do you see when you turn out the light,
I can't tell you, but I know it's mine.
Oh I get by with a little help from my friends,
Do you need anybody,
I just need someone to love,
Could it be anybody,
I want somebody to love.
I get by with a little help from my friends,
Yes I get by with a little help from my friends,
With a little help from my friends.
Comments