Beatles - With A Little Help From My Friends Chords & Tabs

 

With A Little Help From My Friends Chords & Tabs

Beatles Chords & Tabs

Version: 1 Type: Bass Tab 0 ratings
1 star 2 stars 3 stars 4 stars 5 stars
comments

With A Little Help From My Friends Bass Tab

The Beatles

With a little help from my friends

Album: Sgt. Pepper's lonely hearts club band
Played by: Paul McCartney
Tabbed by: Fjon (fjonklein@excite.com)

Verse 1

G|----------|----------|----------|---11--------|----------|---------2|
D|----------|----------|----------|------14\11-9|----------|-----2h4--|
A|7----6----|4---------|9---------|7------------|7---------|----------|
E|----------|-----2----|-----7----|-------------|-----7----|2---------|

G|----------|--/9--/9--/9|
D|----------|------------|
A|9---------|7-----------|
E|-----7----|------------|

Chorus 

G|----------|-----------|----------|----------|-----------|--9-7-6----|
D|----------|-----------|----------|----------|-----------|--------9\-|
A|5--5------|7--7--7--7-|5--5------|7--5--4--2|---4--7--4-|7---------2|
E|------5--5|-----------|------5--5|----------|5----------|-----------|

Verse 2
[ Tab from: http://www.guitartabs.cc/tabs/b/beatles/with_a_little_help_from_my_friends_btab.html ]
G|------|---11----------|------|---8/9-6---|------|---11----------|
D|------|------14-11----|------|---------9-|------|------14-11----|
A|7-----|------------14-|9-----|7----------|7-----|------------14-|
E|---7--|2--------------|---7--|-----------|---7--|2--------------|

G|------|---/9-/9-/9--|
D|------|-------------|
A|9-----|7------------|
E|---7--|-------------|


Chorus
                    
G|--------|--------|--------|--------|-----------|--------|
D|--------|--------|--------|--------|-----------|--------|
A|5-5-----|7-7-7-7-|5-5-----|7-7-7-7-|--4--7--4--|7-7-7-7-|
E|----5-5-|--------|----5-5-|--------|5----------|--------|


"Do you need anybody..."

G|--------|---------|--------|----------|----------------|
D|---11---|9--------|--------|----------|----------------|
A|--------|---7--9--|7--6-4--|7-7--5-5--|----------------|
E|9-------|---------|--------|----------|5-(0)-5-5-(0)-5-|

Note: play the 0s in brackets the second time only.


End

G|----|----|----------|----------|-----|
D|----|7---|----------|----------|-----|
A|5---|----|----------|----------|-----|
E|----|----|3-3-3-2-3-|5-5-5-0-5-|0----|

Comments