Beatles - Wild Honey Pie Chords & Tabs

 

Wild Honey Pie Chords & Tabs

Beatles Chords & Tabs

Version: 4 Type: Tab

Wild Honey Pie Tab

The Beatles - Wild Honey Pie
Tabbed by: Niels van der Haven

I keep finding the same tabs to this song on just about every site, and it kind of 
This sounds an awful lot better.
Enjoy.

Play this twice...

E|6---6---|4---4---|3-3-3-3-2-2-2-2-|1-1-1-1-|
B|--5---5-|--3---3-|2-2-2-2-1-1-1-1-|0-0-0-0-|
G|6-6-6-6-|4-4-4-4-|3-3-3-3-2-2-2-2-|1-1-1-1-|
D|4-4-4-4-|2-2-2-2-|----------------|--------|
A|--------|--------|----------------|--------|
E|--------|--------|----------------|--------|
  1.2.3.4.|1.2.3.4.|1 . 2 . 3 . 4 . |1 . 2 . |<--(!!)

E|6-6-6-6-6~~-----|6-6-6-6-6~~-----|
B|5-5-5-5-5~~-----|5-5-5-5-5~~-----|
G|6-6-6-6-6~~-----|6-6-6-6-6~~-----|
D|4-4-4-4-4~~-----|4-4-4-4-4~~-----|
A|----------------|----------------|
E|----------------|----------------|
  HONEY PIE!!!     HONEY PIE!!!

And then...
[ Tab from: http://www.guitartabs.cc/tabs/b/beatles/wild_honey_pie_tab_ver_4.html ]
E|6---6---|4---4---|3-3-3-3-2-2-2-2-|1-1-1-1-|
B|--5---5-|--3---3-|2-2-2-2-1-1-1-1-|0-0-0-0-|
G|6-6-6-6-|4-4-4-4-|3-3-3-3-2-2-2-2-|1-1-1-1-|
D|4-4-4-4-|2-2-2-2-|----------------|--------|
A|--------|--------|----------------|--------|
E|--------|--------|----------------|--------|
  1.2.3.4.|1.2.3.4.|1 . 2 . 3 . 4 . |1 . 2 . |<--(!!)

E|6-6-6-6-6-6-6-6-|4-4-4-4-4-4-4-4-|6-6-6-6-6-6-6-6-|4-4-4-4-4-4-4-4-|
B|5-5-5-5-5-5-5-5-|3-3-3-3-3-3-3-3-|5-5-5-5-5-5-5-5-|3-3-3-3-3-3-3-3-|
G|6-6-6-6-6-6-6-6-|4-4-4-4-4-4-4-4-|6-6-6-6-6-6-6-6-|4-4-4-4-4-4-4-4-|
D|4-4-4-4-4-4-4-4-|2-2-2-2-2-2-2-2-|4-4-4-4-4-4-4-4-|2-2-2-2-2-2-2-2-|
A|----------------|----------------|----------------|----------------|
E|----------------|----------------|----------------|----------------|
  HONEY PIE!!!     HONEY PIE!!!     HONEY PIE!!!     HONEY PIE!!!  I...

  E|6~~---------|
  B|7~~---------|
  G|6~~---------|
  D|4~~---------|
  A|------------|
  E|------------|
 ...love you