Beatles - While My Guitar Gently Weeps Chords & Tabs

 

While My Guitar Gently Weeps Chords & Tabs

Beatles Chords & Tabs

Version: 5 Type: Bass Tab 0 ratings
1 star 2 stars 3 stars 4 stars 5 stars
comments

While My Guitar Gently Weeps Bass Tab

WHILE MY GUITAR GENTLY WEEPS

Written by George Harrison

INTRO

  t=114
G|---------------------------------|---------------------------------|
D|-7-------------------------------|-5-------------------------------|
A|---------------------------------|---------------------------------|
E|---------------------------------|---------------------------------|


G|---------------------------------|---------------------------------|
D|-4-------------------------------|-3-------------------------------|
A|---------------------------------|---------------------------------|
E|---------------------------------|---------------------------------|


G|---------------------------------|---------------------------------|
D|-7-------------------------------|-5-------------------------------|
A|---------------------------------|---------------------------------|
E|---------------------------------|---------------------------------|


G|---------------------------------|---------------------------------|
D|---------------------------------|---------------------------------|
A|-5-------------------------------|-7-------7-------7---7---7-------|
E|---------------------------------|---------------------------------|
                                                             I   look

VERSE


G|---------------------------------|---------------------------------|
D|-7-------------------------------|-5-------------------------------|
A|---------------------------------|---------------------------------|
E|---------------------------------|---------------------------------|
              at      you     all                   see the     love

G|---------------------------------|---------------------------------|
D|-4-------------------------------|-3-------------------------------|
A|---------------------------------|---------------------------------|
E|---------------------------------|---------------------------------|
               there   thatís  sleeping

G|---------------------------------|---------------------------------|
D|-7-------------------------------|-5-------------------------------|
A|---------------------------------|---------------------------------|
E|---------------------------------|---------------------------------|
           while   my      guitar                gently          weeps

G|---------------------------------|---------------------------------|
D|---------------------------------|---------------------------------|
A|-5-------------------------------|-7-------------------------------|
E|---------------------------------|---------------------------------|
                                                             I   look

VERSE


G|---------------------------------|---------------------------------|
D|-7-------------------------------|-5-------------------------------|
A|---------------------------------|---------------------------------|
E|---------------------------------|---------------------------------|
               at      the     floor             and     I       see

G|---------------------------------|---------------------------------|
D|-4-------------------------------|-3-------------------------------|
A|---------------------------------|---------------------------------|
E|---------------------------------|---------------------------------|
               it      needs   sweeping

G|-9---9---9-----------------------|-7---7---7-----------------------|
D|-7---7---7-----------------------|-5---5---5-----------------------|
A|---------------------------------|---------------------------------|
E|---------------------------------|---------------------------------|
           still   my      guitar                gently          weeps

G|---------------------------------|---------------------------------|
D|---------------------------------|-----------------6---------------|
A|-3-------3-------3---2---3---5---|-7-------7---9-----------7-------|
E|---------------------------------|---------------------------------|


BRIDGE


G|---------------------------------|---------------------------------|
D|-7-------7\----------------------|----------------/6-------9-------|
A|-----------------2-h-4---7\------|-4-----------7-------------------|
E|---------------------------------|---------------------------------|
               I   donít   know      why

G|---------------------------------|---------------------------------|
D|-7-------7-----------------------|----------------/6-------9\------|
A|-----------------9\------2-------|-4-----------7-------------------|
E|---------------------------------|---------------------------------|
               nobody          told      you

G|---------------------------------|---------------------------------|
D|-----------------4\--------------|---------------------------------|
A|-2-------2-----------------------|-2-----------4---5-------6-------|
E|-------------------------2-------|---------------------------------|
               how      to   unfold                      your

G|---------------------------------|---------------------------------|
D|---------------------------------|-6---6-------6---7-------9\------|
A|-7---7-------7---9---9-------9---|---------------------------------|
E|---------------------------------|---------------------------------|
   love

G|---------------------------------|---------------------------------|
D|-7-------7\----------------------|----------------/6-------9\------|
A|-----------------2-/-4---7\------|-4-----------7-------------------|
E|---------------------------------|---------------------------------|
               I   donít   know      how

G|---------------------------------|---------------------------------|
D|-7-------7-----------------------|----------------/6-------9-------|
A|-----------------9\------2-------|-4-----------7-------------------|
E|---------------------------------|---------------------------------|
               someone       controlled      you

G|---------------------------------|---------------------------------|
D|-----------------4\--------------|---------------------------------|
A|-2-------2-----------------------|-2-----------4---5-------6-------|
E|-------------------------2-------|---------------------------------|
               they    bought  and   sold

G|---------------------------------|---------------------------------|
D|---------------------------------|-6---6-------6---7-------9\------|
A|-7---7-------7---9---9-------9---|---------------------------------|
E|---------------------------------|---------------------------------|
   you                                                   I       look

VERSE


G|---------------------------------|-7---7---7-----------------------|
D|-7-------------------------------|-5---5---5-----------------------|
A|---------------------------------|---------------------------------|
E|---------------------------------|---------------------------------|
               at      the     world                 and I       notice

G|-7---7---7-----------------------|-5---5---5-----------------------|
D|-4---4---4-----------------------|-3---3---3---------------5-h-7---|
A|---------------------------------|---------------------------------|
E|---------------------------------|---------------------------------|
                       itís    turning

G|---------------------------------|---------------------------------|
D|-7---7---7-----------------------|-5-------5-----------------------|
A|---------------------------------|---------------------------------|
E|---------------------------------|---------------------------------|
           while   my      guitar                gently          weeps

G|---------------------------------|---------------------------------|
D|---------------------------------|-------------------------6-------|
A|-5---5---5-----------------------|-7---7-------7---9-----------7---|
E|---------------------------------|---------------------------------|
                                                            With evíry

VERSE


G|-9---X---9-----------------------|-7---X---7-----------------------|
D|-7---X---7-----------------------|-5---X---5-----------------------|
A|---------------------------------|---------------------------------|
E|---------------------------------|---------------------------------|
                       mistake                   we      must    surely

G|-7-------7-----------------------|---------------------------------|
D|-4-------4-----------------------|-4-------3-----------------------|
A|---------------------------------|---------------------------------|
E|---------------------------------|---------------------------------|
                       be      learning

G|-9---9---9-----------------------|---------------------------------|
D|-7---7---7-----------------------|-5-------5-----------------------|
A|---------------------------------|-------------------------7---5---|
E|---------------------------------|---------------------------------|
           still   my      guitar                gently          weeps

G|---------------------------------|---------------------------------|
D|---------------------------------|-----------------6---------------|
A|-3-------3---2---3-------5-/-7---|-7-------7---9-----------7-------|
E|---------------------------------|---------------------------------|
                                     well...

GUITAR SOLO


G|-9---9---9-----------9---9-------|-7---7---7-----------------------|
D|-7---7---7-----------7---7-------|-5---5---5-----------------------|
A|---------------------------------|---------------------------------|
E|---------------------------------|---------------------------------|


G|-7---7---7-----------------------|-5---5-------5---5-/-7---7-/-9---|
D|-4---4---4-----------------------|-3---3-------3---3-/-5---5-/-7---|
A|---------------------------------|---------------------------------|
E|---------------------------------|---------------------------------|


G|-9---9---9-----------------------|-7---7---7-----------------------|
D|-7---7---7-----------------------|-5---5---5-----------------------|
A|---------------------------------|---------------------------------|
E|---------------------------------|---------------------------------|


G|---------------------------------|----------------/9\--------------|
D|-7-------7-------7---7---7-------|---------------------------------|
A|-5-------5-------5---5---5-------|-7---7---7---7-----------7---7---|
E|---------------------------------|---------------------------------|

[ Tab from: http://www.guitartabs.cc/tabs/b/beatles/while_my_guitar_gently_weeps_btab_ver_5.html ]
G|---------------------------------|---------------------------------|
D|-7---7---7\----------------------|-5---5---5\----------------------|
A|---------------------------------|---------------------------------|
E|---------------------------------|---------------------------------|


G|---------------------------------|---------------------------------|
D|-4---4---4\----------------------|-3---3---3-------3-/-5---5-/-7---|
A|---------------------------------|---------------------------------|
E|---------------------------------|---------------------------------|


G|---------------------------------|---------------------------------|
D|-7---7---7\----------------------|-5---5---5-------3---2-----------|
A|---------------------------------|-------------------------5-------|
E|---------------------------------|---------------------------------|


G|---------------------------------|---------------------------------|
D|---------------------------------|-----------------6---------------|
A|-3---3---3---2---3-/-5---5-/-7---|-----7---7---9-----------7-------|
E|---------------------------------|---------------------------------|


BRIDGE


G|---------------------------------|---------------------------------|
D|-7-------7\----------------------|----------------/6-------9-------|
A|-----------------2-h-4---7\------|-4-----------7-------------------|
E|---------------------------------|---------------------------------|
               I   donít   know      how

G|---------------------------------|---------------------------------|
D|-7-------7-----------------------|----------------/6-------9\------|
A|-----------------9\------2-------|-4-----------7-------------------|
E|---------------------------------|---------------------------------|
               you    were diverted

G|---------------------------------|---------------------------------|
D|-----------------4\--------------|---------------------------------|
A|-2-------2-----------------------|-2-----------4---5-------6-------|
E|-------------------------2-------|---------------------------------|
               you      were perverted

G|---------------------------------|---------------------------------|
D|---------------------------------|-6---6-------6---7-------9\------|
A|-7---7-------7---9---9-------9---|---------------------------------|
E|---------------------------------|---------------------------------|
   too

G|---------------------------------|---------------------------------|
D|-7-------7\----------------------|----------------/6-------9\------|
A|-----------------2-/-4---7\------|-4-----------7-------------------|
E|---------------------------------|---------------------------------|
               I   donít   know      how

G|---------------------------------|---------------------------------|
D|-7-------7-----------------------|----------------/6-------9-------|
A|-----------------9\------2-------|-4-----------7-------------------|
E|---------------------------------|---------------------------------|
               you      were inverted

G|---------------------------------|---------------------------------|
D|-----------------4\--------------|---------------------------------|
A|-2-------2-----------------------|-2-----------4---5-------6-------|
E|-------------------------2-------|---------------------------------|
               no      one     alerted                       you

G|---------------------------------|---------------------------------|
D|---------------------------------|-6---6-------6---7-------9\------|
A|-7---7-------7---9---9-------9---|---------------------------------|
E|---------------------------------|---------------------------------|
                                                         I       look

VERSE


G|-9---9---9-----------------------|-7---7---7-----------------------|
D|-7---7---7-----------------------|-5---5---5-----------------------|
A|---------------------------------|---------------------------------|
E|---------------------------------|---------------------------------|
               at      you     all               see     the     love

G|-7---7---7-----------------------|-5---5---5-----------------------|
D|-4---4---4-----------------------|-3---3---3-----------3---5-------|
A|---------------------------------|---------------------------------|
E|---------------------------------|---------------------------------|
               there   thatís  sleeping

G|---------------------------------|---------------------------------|
D|-7---7---7-----------------------|-5-------5-----------------------|
A|---------------------------------|---------------------------------|
E|---------------------------------|---------------------------------|
           while   my      guitar                gently          weeps

G|---------------------------------|-------------9---9---9-----------|
D|---------------------------------|---------------------------------|
A|-5-------5-------5---5---5-------|-7---7---7---------------7---7---|
E|---------------------------------|---------------------------------|


VERSE


G|-9---X---9-----------------------|-7---X---7-----------------------|
D|-7---X---7-----------------------|-5---X---5-----------------------|
A|---------------------------------|---------------------------------|
E|---------------------------------|---------------------------------|
          Look at      you     all

G|-7---7---7-----------------------|-5---5---5-----------7---7---9---|
D|-4---4---4-----------------------|-3---3---3-----------5---5---7---|
A|---------------------------------|---------------------------------|
E|---------------------------------|---------------------------------|


G|-9---9---9-----------------------|-7---7---7-----------------------|
D|-7---7---7-----------------------|-5---5---5-----------------------|
A|---------------------------------|-------------------------7---5---|
E|---------------------------------|---------------------------------|
           still   my      guitar                gently          weeps

G|---------------------------------|---------------------------------|
D|---------------------------------|-----------------6-----------6---|
A|-3---3---3-------3---2---3-/-5---|-7---7---7---9-------7---9-------|
E|---------------------------------|---------------------------------|


GUITAR SOLO


G|-------------9---\---------------|-------------9---\---------------|
D|-7---7---7-----------------------|-5---5---5-----------------------|
A|---------------------------------|---------------------------------|
E|---------------------------------|---------------------------------|


G|-------------7---\---------------|-------------5---\---------------|
D|-4---4---4---------------4-------|-3---3---3-----------------------|
A|---------------------------------|---------------------------------|
E|---------------------------------|---------------------------------|


G|-9---9---9---9---\---------------|-7---7---7---7---\---------------|
D|-7---7---7-----------------------|-5---5---5-----------------------|
A|---------------------------------|---------------------------------|
E|---------------------------------|---------------------------------|


G|---------------------------------|-----------------9---9---9---9---|
D|-7-------7-------7-------7-------|---------------------------------|
A|-5-------5-------5-------5-------|-7-------------------------------|
E|---------------------------------|-----0---0---0-------------------|


G|-------------9---\---------------|-------------9---\---------------|
D|-7---7---7-----------------------|-5---5---5-----------------------|
A|---------------------------------|---------------------------------|
E|---------------------------------|---------------------------------|


G|-------------7---\---------------|-------------7---\---------------|
D|-4---4---4-------------------4---|-3---3---3-----------------------|
A|---------------------------------|---------------------------------|
E|---------------------------------|---------------------------------|


G|-9---9---9---9-------------------|-7---7---7---7-------------------|
D|-7---7---7---7-------------------|-5---5---5---5-------------------|
A|---------------------------------|---------------------------------|
E|---------------------------------|---------------------------------|


G|---------------------------------|---------------------------------|
D|---------------------------------|-----------------6-----------6---|
A|-3---3---3---2---3---5-------7---|-----7---7---9-------7---9-------|
E|---------------------------------|---------------------------------|


G|-------------9---\---------------|-------------9---\---------------|
D|-7---7---7-----------------------|-5---5---5-----------------------|
A|---------------------------------|---------------------------------|
E|---------------------------------|---------------------------------|


G|-------------7---\---------------|-------------7-------7---5-------|
D|-4---4---4-------------------4---|-3---3---3-----------------------|
A|---------------------------------|---------------------------------|
E|---------------------------------|---------------------------------|


G|-------------9---\---------------|-------------7---\---------------|
D|/7---7---7-----------------------|-5---5---5-----------------------|
A|---------------------------------|---------------------------------|
E|---------------------------------|---------------------------------|


G|---------------------------------|---------------------------------|
D|---------------------------------|-------------------------6-------|
A|-5---5---5---5-------5---5-/-7---|-7---7---7---9-------9-----------|
E|---------------------------------|---------------------------------|


G|-------------9---\---------------|-------------9---\---------------|
D|-7---7---7-----------------------|-5---5---5-----------------------|
A|---------------------------------|---------------------------------|
E|---------------------------------|---------------------------------|


G|-----7-----------7---------------|----/7------/7------/7---5-------|
D|-4-----------4-----------4-------|-3-------------------------------|
A|---------------------------------|---------------------------------|
E|---------------------------------|---------------------------------|


G|---------------------------------|---------------------------------|
D|-7---7---7---7-------------------|-5---5---5---5-------------------|
A|---------------------------------|--------------------/7---5-------|
E|---------------------------------|---------------------------------|


G|---------------------------------|---------------------------------|
D|---------------------------------|---------------------6-----------|
A|-3---3---3---3-------5-------5---|-7---7---7---7-----------7-------|
E|---------------------------------|---------------------------------|
                                                             FADE OUT
Comments