Beatles - Twist And Shout Chords & Tabs

 

Twist And Shout Chords & Tabs

Beatles Chords & Tabs

Version: 7 Type: Tab 0 ratings
1 star 2 stars 3 stars 4 stars 5 stars
comments

Twist And Shout Tab

i'v been looking for this tab every were and they all were way off so instead of being 
like i am i decided to tab it my self

Intro-main riff
e-------------------------------------------------|
b-------------------------------------------------|
g-------------------------------------------------|
d----0--0---5----9----7----2----0---0-------------|
a-------------------------------2---2-------------|
E-------------------------------3---3-------------|

This is how i play the break part its probably wrong
[ Tab from: http://www.guitartabs.cc/tabs/b/beatles/twist_and_shout_tab_ver_7.html ]
e-------------------------------------------------|
b-------------------------------------------------|
g2-----2-----2-----2-----2-----------------------|
d2-----2-----2-----2-----2-----------------------|
a-0-0-0-0-0-0-0-0-0-0-0-0-0-----------------------|
e-------------------------------------------------|

guitar solo
e---------------------------------------------------|
b--------------3---2--------------------------------|
g22---0----4---2---2-------------------------------|
d22-----------------2-------0----0-----------------|
a--------------------------------2---2--------------|
e--------------------------------3---3--------------|

This is 99% correct also

it sounds better if you have another guitar playing the
 D cord G, A, and the G cord  figure out struming
Comments