Beatles - Twist And Shout Chords & Tabs

 

Twist And Shout Chords & Tabs

Beatles Chords & Tabs

Version: 2 Type: Tab 0 ratings
1 star 2 stars 3 stars 4 stars 5 stars
comments

Twist And Shout Tab

   
                                Twist And Shout                                 


                                                      Bert Russell & Phil Medley
Tab:KAD√ĚR (BLITZ)



 CHORDS TO BE PLAYED: _____D_________G_______A _____ A______________________                              
E||---------------------|-----------------------|-------------------------|
B||---------------------|-----------------------|-------------------------|
G||---------------------|-----------------------|-------------------------|
D||---------------------|-------7---------------|-------------------------|
A||------------0--2--4--|--5----5----2--2----4--|----4--4--4--4--4--2--4--|
E||---------------------|------------3--3----5--|----5--5--5--5--5--------|


___and so on...                                                                          
-----------------------|-------------------------|-----------------------|
-----------------------|-------------------------|-----------------------|
-----------------------|-------------------------|-----------------------|
-------7---------------|-------------------------|-------7---------------|
--5----5----2--2----4--|----4--4--4--4--4--2--4--|--5----5----2--2----4--|
------------3--3----5--|----5--5--5--5--5--------|------------3--3----5--|


                                                                            
-------------------------|-----------------------|-------------------------|
-------------------------|-----------------------|-------------------------|
-------------------------|-----------------------|-------------------------|
-------------------------|-------7---------------|-------------------------|
----4--4--4--4--4--2--4--|--5----5----2--2----4--|----4--4--4--4--4--2--4--|
----5--5--5--5--5--------|------------3--3----5--|----5--5--5--5--5--------|


                                                                          
-----------------------|-------------------------|-----------------------|
-----------------------|-------------------------|-----------------------|
-----------------------|-------------------------|-----------------------|
-------7---------------|-------------------------|-------7---------------|
--5----5----2--2----4--|----4--4--4--4--4--2--4--|--5----5----2--2----4--|
------------3--3----5--|----5--5--5--5--5--------|------------3--3----5--|


                                                                            
-------------------------|-----------------------|-------------------------|
-------------------------|-----------------------|-------------------------|
-------------------------|-----------------------|-------------------------|
-------------------------|-------7---------------|-------------------------|
----4--4--4--4--4--2--4--|--5----5----2--2----4--|----4--4--4--4--4--2--4--|
----5--5--5--5--5--------|------------3--3----5--|----5--5--5--5--5--------|


                                                                          
-----------------------|-------------------------|-----------------------|
-----------------------|-------------------------|-----------------------|
-----------------------|-------------------------|-----------------------|
-------7---------------|-------------------------|-------7---------------|
--5----5----2--2----4--|----4--4--4--4--4--2--4--|--5----5----2--2----4--|
------------3--3----5--|----5--5--5--5--5--------|------------3--3----5--|


                                                                            
-------------------------|-----------------------|-------------------------|
-------------------------|-----------------------|-------------------------|
-------------------------|-----------------------|-------------------------|
-------------------------|-------7---------------|-------------------------|
----4--4--4--4--4--2--4--|--5----5----2--2----4--|----4--4--4--4--4--2--4--|
----5--5--5--5--5--------|------------3--3----5--|----5--5--5--5--5--------|


                                                                          
-----------------------|-------------------------|-----------------------|
-----------------------|-------------------------|-----------------------|
-----------------------|-------------------------|-----------------------|
-------7---------------|-------------------------|-------7---------------|
--5----5----2--2----4--|----4--4--4--4--4--2--4--|--5----5----2--2----4--|
------------3--3----5--|----5--5--5--5--5--------|------------3--3----5--|


                                                                            
-------------------------|-----------------------|-------------------------|
-------------------------|-----------------------|-------------------------|
-------------------------|-----------------------|-------------------------|
-------------------------|-------7---------------|-------------------------|
----4--4--4--4--4--2--4--|--5----5----2--2----4--|----4--4--4--4--4--2--4--|
----5--5--5--5--5--------|------------3--3----5--|----5--5--5--5--5--------|


                                                                          
-----------------------|-------------------------|-----------------------|
-----------------------|-------------------------|-----------------------|
-----------------------|-------------------------|-----------------------|
-------7---------------|-------------------------|-------7---------------|
--5----5----2--2----4--|----4--4--4--4--4--2--4--|--5----5----2--2----4--|
------------3--3----5--|----5--5--5--5--5--------|------------3--3----5--|


                                                                            
-------------------------|-----------------------|-------------------------|
-------------------------|-----------------------|-------------------------|
-------------------------|-----------------------|-------------------------|
-------------------------|-------7---------------|-------------------------|
----4--4--4--4--4--2--4--|--5----5----2--2----4--|----4--4--4--4--4--2--4--|
----5--5--5--5--5--------|------------3--3----5--|----5--5--5--5--5--------|


                                                                          
-----------------------|-------------------------|-----------------------|
-----------------------|-------------------------|-----------------------|
-----------------------|-------------------------|-----------------------|
-------7---------------|-------------------------|-------7---------------|
--5----5----2--2----4--|----4--4--4--4--4--2--4--|--5----5----2--2----4--|
------------3--3----5--|----5--5--5--5--5--------|------------3--3----5--|


                         interlude;                                              
------------------------|-----------------------|---------------------|
------------------------|---------------3----2--|---------------------|
------------------------|------------4----------|--------0--4----2----|
------------------------|--4------4-------------|---------------------|
----4--4--4--4--4--4----|-----------------------|---------------------|
----5--5--5--5--5--5----|-----------------------|---------------------|

[ Tab from: http://www.guitartabs.cc/tabs/b/beatles/twist_and_shout_tab_ver_2.html ]
                                                                      
-----------------------|---------------------|--------------------2--|
---------------3----2--|---------------------|---------------3----2--|
------------4----------|--------0--4----2----|------------4----------|
--4------4-------------|---------------------|--4------4-------------|
-----------------------|---------------------|-----------------------|
-----------------------|---------------------|-----------------------|


                                                                    
---------------------|-----------------------|---------------------|
---------------------|---------------3----2--|---------------------|
--------0--4----2----|------------4----------|--------0--4----2----|
---------------------|--4------4-------------|---------------------|
---------------------|-----------------------|---------------------|
---------------------|-----------------------|---------------------|


 Here, the other guitar plays "A" chord with adding some lower 2nd fret                                                                             
-------------------------|-------------------------|-------------------------|
-------------------------|-------------------------|-------------------------|
-------------------------|-------------------------|-------------------------|
-------------------------|-------------------------|-------------------------|
-----------0-------------|-----------0-------------|-----------0-------------|
--4--5--5--4----5--5--5--|--4--5--5--4----5--5--5--|--4--5--5--4----5--5--5--|


                                                                               
--------------------------|-------------------------|-------------------------|
--------------------------|-------------------------|-------------------------|
--------------------------|-------------------------|-------------------------|
--------------------------|-------------------------|-------------------------|
--------------------------|-----------0-------------|-----------0-------------|
--4--5--5--4--5--5--4--5--|--4--5--5--4----5--4--5--|--4--5--5--4----5--5--5--|


       again to main melody...                                                                   
-----------------------|-------------------------|-----------------------|
-----------------------|-------------------------|-----------------------|
-----------------------|-------------------------|-----------------------|
-------7---------------|-------------------------|-------7---------------|
--5----5----2--2----4--|----4--4--4--4--4--2--4--|--5----5----2--2----4--|
------------3--3----5--|----5--5--5--5--5--------|------------3--3----5--|


                                                                            
-------------------------|-----------------------|-------------------------|
-------------------------|-----------------------|-------------------------|
-------------------------|-----------------------|-------------------------|
-------------------------|-------7---------------|-------------------------|
----4--4--4--4--4--2--4--|--5----5----2--2----4--|----4--4--4--4--4--2--4--|
----5--5--5--5--5--------|------------3--3----5--|----5--5--5--5--5--------|


                                                                          
-----------------------|-------------------------|-----------------------|
-----------------------|-------------------------|-----------------------|
-----------------------|-------------------------|-----------------------|
-------7---------------|-------------------------|-------7---------------|
--5----5----2--2----4--|----4--4--4--4--4--2--4--|--5----5----2--2----4--|
------------3--3----5--|----5--5--5--5--5--------|------------3--3----5--|


                                                                            
-------------------------|-----------------------|-------------------------|
-------------------------|-----------------------|-------------------------|
-------------------------|-----------------------|-------------------------|
-------------------------|-------7---------------|-------------------------|
----4--4--4--4--4--2--4--|--5----5----2--2----4--|----4--4--4--4--4--2--4--|
----5--5--5--5--5--------|------------3--3----5--|----5--5--5--5--5--------|


                                                                          
-----------------------|-------------------------|-----------------------|
-----------------------|-------------------------|-----------------------|
-----------------------|-------------------------|-----------------------|
-------7---------------|-------------------------|-------7---------------|
--5----5----2--2----4--|----4--4--4--4--4--2--4--|--5----5----2--2----4--|
------------3--3----5--|----5--5--5--5--5--------|------------3--3----5--|


                                                                            
-------------------------|-----------------------|-------------------------|
-------------------------|-----------------------|-------------------------|
-------------------------|-----------------------|-------------------------|
-------------------------|-------7---------------|-------------------------|
----4--4--4--4--4--2--4--|--5----5----2--2----4--|----4--4--4--4--4--2--4--|
----5--5--5--5--5--------|------------3--3----5--|----5--5--5--5--5--------|


                                                                          
-----------------------|-------------------------|-----------------------|
-----------------------|-------------------------|-----------------------|
-----------------------|-------------------------|-----------------------|
-------7---------------|-------------------------|-------7---------------|
--5----5----2--2----4--|----4--4--4--4--4--2--4--|--5----5----2--2----4--|
------------3--3----5--|----5--5--5--5--5--------|------------3--3----5--|


                                                                              
-------------------------|-------------------------|-------------------------|
-------------------------|-------------------------|-------------------------|
-------------------------|-------------------------|-------------------------|
-------------------------|-------------------------|-------------------------|
----4--4--4--4--4--4--4--|-----------0-------------|-----------0-------------|
----5--5--5--5--5--5--5--|--4--5--5--4----5--5--5--|--4--5--5--4----5--4--5--|


                                                                          
-------------------------|------------------------|----------------------|
-------------------------|------------------------|------------10--------|
-------------------------|------------------------|------------9---------|
-------------------------|------------------------|------------10--------|
-----------0-------------|------------------------|------------9---------|
--4--5--5--1----5--4--5--|--5--5----6--7--8----9--|--10------------------|


                    
------------------||
------------------||
------------------||
----allright!!----||
------------------||
------------------||


if you want you can get what other guitar plays exactly...and if you are jealous enough ,you can get what
bass plays with mailing me and asking for it gently..:) And if you ,then, want the battery part you can get 
"KNOCK THE F**K OUT" with mailing me ;p

torture@2die4.com
Comments