Beatles - Twist And Shout Chords & Tabs

 

Twist And Shout Chords & Tabs

Beatles Chords & Tabs

Version: 5 Type: Bass Tab 0 ratings
1 star 2 stars 3 stars 4 stars 5 stars
comments

Twist And Shout Bass Tab

   
the beatles
twist and shout
tabbed by saturns_bassman

 
when you play this song just play every line through and then go on to the next one,
paul pretty much plays somthing different everytime so just go along with this,hope
you enjoy!!


|------|--------4---2-|2-2-2-2-0-----|--------4---2-|--2-2-2-2-2-2-|
|------|--4---5---5---|----------4-2-|--4---5---5---|--------------|
|0-2-4-|5---5---------|--------------|5---5---------|0-------------|
|------|--------------|--------------|--------------|--------------|

|----2---4---|2-------2-2-0---|----2---4---|2-------2-2-0---|
|--4---5---5-|------2-------2-|--4---5---5-|------2-------4-|
|5-----------|--0-4-----------|5-----------|--0-4-----------|
|------------|----------------|------------|----------------|

|----2---4---|2-------2-2-0---|----2-----4---|2---2-2-2-2-2-2-|
|--4---5---5-|------2-------2-|--4---5-5---5-|----------------|
|5-----------|--0-4-----------|5-------------|--0-------------|
|------------|----------------|--------------|----------------|

|------2-----4---|2-------2-0-----|----2---4---|2-------2-2-0---|
|----4---5-5---5-|------2-----4-2-|--4---5---5-|--------------4-|
|5-5-------------|--0-4-----------|5-----------|--0-0-0---------|
|----------------|----------------|------------|----------------|

|----2-----4---|2-------2-0-----|----2---4---|2-------2-2-2-0-|
|--4---5-5---5-|------2-----4-2-|--4---5---5-|----------------|
|5-------------|--0-4-----------|5-----------|--0-0-0---------|
|--------------|----------------|------------|----------------|

|----2---4---|2-------2-2-0---|----2---4---|2-------2-2-0---|
|--4---5---5-|------2-------2-|--4---5---5-|------2-------4-|
|5-----------|--0-4-----------|5-----------|--0-4-----------|
|------------|----------------|------------|----------------|

|----2---4---|2-------2-2-0---|----2-----4---|2---2-2-2-2-2-2-|
|--4---5---5-|------2-------2-|--4---5-5---5-|----------------|
|5-----------|--0-4-----------|5-------------|--0-------------|
|------------|----------------|--------------|----------------|

|------2-----4---|2-------2-0-----|----2---4---|2-------2-2-0---|
|----4---5-5---5-|------2-----4-2-|--4---5---5-|--------------4-|
|5-5-------------|--0-4-----------|5-----------|--0-0-0---------|
|----------------|----------------|------------|----------------|

|----2-----4---|2-------2-2-0---|----2---4---|2---2-2-2-2-2-2-|
|--4---5-5---5-|------2-------4-|--4---5---5-|----------------|
|5-------------|--0-4-----------|5-----------|--0-------------|
|--------------|----------------|------------|----------------|
[ Tab from: http://www.guitartabs.cc/tabs/b/beatles/twist_and_shout_btab_ver_5.html ]
|------4---2-|--2---2-0-0-----|----------4---2-|--------2-0-----|
|----5---5---|------------4-4-|--------5---5---|------2-----4-2-|
|5-5---------|0---0-----------|5-5-5-5---------|0-0-4-----------|
|------------|----------------|----------------|----------------|
  e
|--------4---2-|--2-2-2-0-0-----|--------4---2-|2-----0-2-----0-2-----0-2-|
|----4-5---5---|------------4-4-|----4-5---5---|----0-4-----0-4-----0-4---|
|5-5-----------|0---------------|5-5-----------|--0-------0-------0-------|
|--------------|----------------|--------------|--------------------------|

|2-2-2---0-2-2-2-2-|2-2-2---0-2-2-2-2-|2-2-2---0-2-2-2-2-|
|------0-4---------|------0-4---------|------0-4---------|
|------------------|------------------|------------------|
|------------------|------------------|------------------|

|2-2-2---0-2-2-2-2-|2-2-2-2-2-2-2-2-|2-2-2-2-2-0-----|----2---4---|
|------0-4---------|----------------|------------4-2-|--4---5---5-|
|------------------|----------------|----------------|5-----------|
|------------------|----------------|----------------|------------|

|2-------2-2-0---|----2---4---|2-------2-2-0---|----2---4---|
|------2-------2-|--4---5---5-|------2-------4-|--4---5---5-|
|--0-4-----------|5-----------|--0-4-----------|5-----------|
|----------------|------------|----------------|------------|

|2-------2-2-0---|----2-----4---|2---2-2-2-2-2-2-|------2-----4---|
|------2-------2-|--4---5-5---5-|----------------|----4---5-5---5-|
|--0-4-----------|5-------------|--0-------------|5-5-------------|
|----------------|--------------|----------------|----------------|

|2-------2-0-----|----2---4---|2-------2-2-0---|----2-----4---|
|------2-----4-2-|--4---5---5-|--------------4-|--4---5-5---5-|
|--0-4-----------|5-----------|--0-0-0---------|5-------------|
|----------------|------------|----------------|--------------|

|2---2-2-0---|----2---4---|2---2---2---2---|------2-----4---|
|----------4-|--4---5---5-|----------------|----4---5-5---5-|
|--0---------|5-----------|--0---0---0---0-|5-5-------------|
|------------|------------|----------------|----------------|

|2-------2-2-0---|------2-----4---|2-------2-2-0---|----2---4---|
|------2-------4-|----4---5-5---5-|------2-------4-|--4---5---5-|
|--0-4-----------|5-5-------------|--0-4-----------|5-----------|
|----------------|----------------|----------------|------------|

|2-------2-0-------0-|2-2-2---0-2-2-2-2---0-|2-2-2---0-2-2-2-2---0-|
|------2-----4-0-0-4-|------0-4---------0-4-|------0-4---------0-4-|
|--0-4---------------|----------------------|----------------------|
|--------------------|----------------------|----------------------|

|2-2-2---0-2-2-2-2-|2-----------|----|
|------0-4---------|------------|0-0-|
|------------------|--0-1-2-3-4-|----|
|------------------|------------|----|
Comments