Beatles - Twist And Shout Chords & Tabs

 

Twist And Shout Chords & Tabs

Beatles Chords & Tabs

Version: 1 Type: Bass Tab 0 ratings
1 star 2 stars 3 stars 4 stars 5 stars
comments

Twist And Shout Bass Tab

                             Twist and shout

Artist:The Beatles
Written by:Lennon/McCartney
Album:Please, please me
Transcribed:Guigsy
Email:janyx@post.sk
                       



 
|------------|----------------|------------------------|----------------|
|------------|----------------|------------------------|-0--0-----------|
|------0-2-4-|-5--5-----2---0-|-(0)--0--0--0--0--------|------0---2---0-|
|------------|------5-3---3---|-----------------3-2--0-|--------3---3---|


|------------------------|----------------|-----------------|
|------------------------|-0--0-----------|------2----------|
|-(0)--0--0--0--0--------|------------2---|-0--4---0--0-2-4-|
|-----------------3--2-0-|------2--3----3-|-----------------|


|-----------------|------------------|---------------|------------------|
|-----------------|------------------|---------------|------2-----------|
|-5--5-------2----|-0--0-0--0--0-2-4-|-5--5------2---|-0--4---0--0-2-4--|
|------2--3----3--|------------------|------2-3----3-|------------------|


|---------------|------------------|----------------|-----------------|
|---------------|------------------|----------------|------2----------|
|-5--5------2---|-0--0-0--0--0-2-4-|-5--5-------2---|-0--4---0--0-2-4-|
|------2-3----3-|------------------|------2--3----3-|-----------------|


|-----------------|------------------|---------------|------------------|
|-----------------|------------------|---------------|------2-----------|
|-5--5-------2----|-0--0-0--0--0-2-4-|-5--5------2---|-0--4---0--0-2-4--|
|------2--3----3--|------------------|------2-3----3-|------------------|


|---------------|------------------|----------------|-----------------|
|---------------|------------------|----------------|------2----------|
|-5--5------2---|-0--0-0--0--0-2-4-|-5--5-------2---|-0--4---0--0-2-4-|
|------2-3----3-|------------------|------2--3----3-|-----------------|


|-----------------|------------------|---------------|------------------|
|-----------------|------------------|---------------|------2-----------|
|-5--5-------2----|-0--0-0--0--0-2-4-|-5--5------2---|-0--4---0--0-2-4--|
|------2--3----3--|------------------|------2-3----3-|------------------|


|---------------|------------------|----------------|-----------------|
|---------------|------------------|----------------|------2----------|
|-5--5------2---|-0--0-0--0--0-2-4-|-5--5-------2---|-0--4---0--0-2-4-|
|------2-3----3-|------------------|------2--3----3-|-----------------|


|-----------------|------------------|---------------|------------------|
|-----------------|------------------|---------------|------2-----------|
|-5--5-------2----|-0--0-0--0--0-2-4-|-5--5------2---|-0--4---0--0-2-4--|
|------2--3----3--|------------------|------2-3----3-|------------------|


|---------------|------------------|------------4-----|-----------------|
|---------------|------------------|----------5---5-7-|---7-7-7-5-5-4-4-|
|-5--5------2---|-0--0-0--0--0-2-4-|-5--5--5----------|-----------------|
|------2-3----3-|------------------|------------------|-5---------------|

[ Tab from: http://www.guitartabs.cc/tabs/b/beatles/twist_and_shout_btab.html ]
|--------------4-----|----------0--0-----|------------0-4------|
|------------5---5-7-|--------2------4-2-|-0--0--0--0-----5-7--|
|-5--5--5--5---------|------4------------|---------------------|
|--------------------|-5--5--------------|---------------------|


|----------0--0-----|------------0-4-----|---------------|--------------------|
|--------2------4-2-|-0--0--0--0-----5-7-|---7----7----7-|-------7-(7)---7-7--|
|------4------------|--------------------|---------------|--------------------|
|-5--5--------------|--------------------|-5----5----5---|-5-5-5-------5------|


|-------------------|--------------------|
|-------7-(7)---7-7-|-------7-(7)---7--7-|
|-------------------|--------------------|
|-5-5-5-------5-----|-5-5-5-------5------|


|---------------------|--------------------|
|--------7-(7)---7--7-|-------7-(7)---7--7-|
|---------------------|--------------------|
|-5-5--5-------5------|-5-5-5-------5------|


|-----------------|----------------|-----------------|-----------------|
|---7-7---7-5-4-2-|-0--0-----------|------2----------|-----------------|
|-----------------|------------2---|-0--4---0--0-2-4-|-5--5-------2----|
|-5-----5---------|------2--3----3-|-----------------|------2--3----3--|


|------------------|---------------|-----------------|----------------|
|------------------|---------------|------2----------|----------------|
|-0--0-0--0--0-2-4-|-5--5------2---|-0--4---0--0-2-4-|-5--5------2----|
|------------------|------2-3----3-|-----------------|------2-3----3--|


|------------------|----------------|-----------------|
|------------------|----------------|------2----------|
|-0--0-0--0--0-2-4-|-5--5-------2---|-0--4---0--0-2-4-|
|------------------|------2--3----3-|-----------------|


|-----------------|------------------|---------------|------------------|
|-----------------|------------------|---------------|------2-----------|
|-5--5-------2----|-0--0-0--0--0-2-4-|-5--5------2---|-0--4---0--0-2-4--|
|------2--3----3--|------------------|------2-3----3-|------------------|


|---------------|------------------|------2-0-0-4---|-------------------|
|---------------|------------------|----4---------5-|-7-7-7-7--7-5-4-2--|
|-5--5------2---|-0--0-0--0--0-2-4-|-5--------------|-------------------|
|------2-3----3-|------------------|----------------|-------------------|


|--------2-0-0-4---|------------------|--------2-0-0-4---|---------2-0------|
|-0--0-4---------5-|-7-7-7-7--7-5-4-2-|-0--0-4---------5-|-7-----2-----4----|
|------------------|------------------|------------------|-----4---------5--|
|------------------|------------------|------------------|---5--------------|


|-----------------|------------------|
|------7-(7)---7--|-------7-(7)---7--|
|-----------------|------------------|
|-5--5-------5----|-5-5-5-------5----|


|------------------|---------------------------|
|-------7-(7)---7--|-(7)-----------------------|
|------------------|---------------------------|
|-5-5-5-------5----|------5-(5)-6--7--8-(8)-9--|


|-------------|-------------|-----------------*|
|-------------|-------------|-----------------*|
|-------------|-------------|-----------------*|
|-10----10----|-(10)--------|-(10)----(10)----*|
Comments