Beatles - Too Much Monkey Business Chords & Tabs

 

Too Much Monkey Business Chords & Tabs

Beatles Chords & Tabs

Version: 2 Type: Bass Tab 0 ratings
1 star 2 stars 3 stars 4 stars 5 stars
comments

Too Much Monkey Business Bass Tab

TOO MUCH MONKEY BUSINESS


Written by Chuck Berry
From The Beatles Live At The BBC album

Pop Go The Beatles #13 (Sept. 10, 1963)


  VERSE


G|---------------------------------|---------------------------------|
D|---------------------------------|-7-------------------------------|
A|---------------------------------|---------------------------------|
E|---------------------------------|---------------------------------|




G|---------------------------------|---------------------------------|
D|-7---------------7---------------|-7---------------7---------------|
A|---------------------------------|---------------------------------|
E|---------------------------------|---------------------------------|




  CHORUS


G|---------------------------------|---------------------------------|
D|---------4-------7-------4---7---|---------4-------7---4-----------|
A|-5-------------------------------|-5-----------------------7---5---|
E|---------------------------------|---------------------------------|




G|---------------------------------|---------------------------------|
D|---------------------------------|---------------------------------|
A|---------4-------7-------4-------|---------4-------7-------4-------|
E|-5-------------------------------|-5---------------------------5---|




G|---------------------------------|---------------------------------|
D|---------6-------9-------6-------|---------4-------7-------4---7---|
A|-7-------------------------------|-5-------------------------------|
E|---------------------------------|---------------------------------|




G|---------------------------------|---------------------------------|
D|---------------------------------|---------4-------5-------6-------|
A|---------4-------5-------6-------|-7-------------------------------|
E|-5-------------------------------|---------------------------------|




  VERSE


G|---------------------------------|---------------------------------|
D|-7-------------------------------|-7-------------------------------|
A|---------------------------------|---------------------------------|
E|---------------------------------|---------------------------------|




G|---------------------------------|---------------------------------|
D|-7-------7-------7-------7-------|-7-------7-------7---------------|
A|---------------------------------|---------------------------------|
E|---------------------------------|---------------------------------|




  CHORUS


G|---------------------------------|---------------------------------|
D|---------4-------7-------4-------|---------4-------7---4-----------|
A|-5-------------------------------|-5-----------------------7---5---|
E|---------------------------------|---------------------------------|




G|---------------------------------|---------------------------------|
D|---------------------------------|---------------------------------|
A|---------4-------7-------4-------|---------4-------7-------4-------|
E|-5-------------------------------|-5-------------------------------|




G|---------------------------------|---------------------------------|
D|---------6-------9-------6-------|---------4-------7-------4-------|
A|-7-------------------------------|-5-------------------------------|
E|---------------------------------|---------------------------------|




G|---------------------------------|---------------------------------|
D|---------------------------------|---------4-------5-------6-------|
A|---------4-------5-------6-------|-7-------------------------------|
E|-5-------------------------------|---------------------------------|




  VERSE


G|---------------------------------|---------------------------------|
D|-7-------------------------------|-7-------------------------------|
A|---------------------------------|---------------------------------|
E|---------------------------------|---------------------------------|




G|---------------------------------|---------------------------------|
D|-7-~-------------7-~-------------|-7-~-------------7-~-------------|
A|---------------------------------|---------------------------------|
E|---------------------------------|---------------------------------|




  CHORUS


G|---------------------------------|---------------------------------|
D|---------4-------7-------4-------|---------4-------7-------4---7---|
A|-5-------------------------------|-5-------------------------------|
E|---------------------------------|---------------------------------|




G|---------------------------------|---------------------------------|
D|-------------------------4-------|---------------------------------|
A|---------4-------7---------------|---------4-------7-------4-------|
E|-5-------------------------------|-5-------------------------------|




G|---------------------------------|---------------------------------|
D|-----------------9-------6-------|---------4-------7-------4-------|
A|-7-------------------------------|-5---------------------------5---|
E|---------------------------------|---------------------------------|




G|---------------------------------|---------------------------------|
D|---------------------------------|---------4-------5-------6-------|
A|---------4-------5-------6-------|-7-------------------------------|
E|-5-------------------------------|---------------------------------|




  GUITAR SOLO


G|---------------------------------|---------------------------------|
D|-7-------5-------4---------------|---------------------------------|
A|-------------------------7-------|---------4-------7-------4-------|
E|---------------------------------|-5-------------------------------|




G|---------------------------------|---------------------------------|
D|-7-------5-------4---------------|-7---7---5-------4---------------|
A|-------------------------7-------|-------------------------7-------|
E|---------------------------------|---------------------------------|




G|---------------------------------|---------------------------------|
D|---------4-------7-------4---7---|---------4-------7-------4-------|
A|-5-------------------------------|-5-------------------------------|
E|---------------------------------|---------------------------------|




G|---------------------------------|---------------------------------|
D|-------------------------4-------|---------------------------------|
A|---------4-------7---------------|---------4-------7-------4-------|
E|-5-------------------------------|-5-------------------------------|




G|---------------------------------|---------------------------------|
D|---------6-------9-------6---9---|---------4-------7-------4-------|
A|-7-------------------------------|-5-------------------------------|
E|---------------------------------|---------------------------------|



[ Tab from: http://www.guitartabs.cc/tabs/b/beatles/too_much_monkey_business_btab_ver_2.html ]
G|---------------------------------|---------------------------------|
D|---------------------------------|---------4-------5-------6-------|
A|---------4-------5-------6-------|-7-------------------------------|
E|-5-------------------------------|---------------------------------|




G|---------------------------------|---------------------------------|
D|-7-------7-----------------------|-7-------7---------------5-------|
A|-----------------7-------7-------|-----------------7---------------|
E|---------------------------------|---------------------------------|




G|---------------------------------|---------------------------------|
D|-7-------7-----------------------|-7-------7---------------7-------|
A|-----------------7-------7-------|-----------------7---------------|
E|---------------------------------|---------------------------------|




G|---------------------------------|---------------------------------|
D|-----------------4-------4-------|-5-------5-------6-------6-------|
A|-5-------5-----------------------|---------------------------------|
E|---------------------------------|---------------------------------|




G|---------------------------------|---------------------------------|
D|-7-------------------------------|-7-------------------------------|
A|-----------------7-------7-------|-----------------7-------5-------|
E|---------------------------------|---------------------------------|




G|---------------------------------|---------------------------------|
D|-----------------9-------9-------|-----------------7-------4-------|
A|-7-------------------------------|-5-------------------------------|
E|---------------------------------|---------------------------------|




G|---------------------------------|---------------------------------|
D|-7-------------------------------|---------4-------5-------6-------|
A|-----------------5-------6-------|-7-------------------------------|
E|---------------------------------|---------------------------------|




  VERSE


G|---------------------------------|---------------------------------|
D|-7-------------------------------|-7-------------------------------|
A|---------------------------------|---------------------------------|
E|---------------------------------|---------------------------------|




G|---------9---------------9-------|---------9-----------------------|
D|-7---------------7---------------|-7---------------7---\-----------|
A|---------------------------------|---------------------------------|
E|---------------------------------|---------------------------------|




  CHORUS


G|---------------------------------|---------------------------------|
D|-----------------7-------4-------|---------4-------7-------4-------|
A|-5-------------------------------|-5-------------------------------|
E|---------------------------------|---------------------------------|




G|---------------------------------|---------------------------------|
D|-------------------------4-------|---------------------------------|
A|---------4-------7---------------|---------4-------7-------4-------|
E|-5-------------------------------|-5---------------------------5---|




G|---------------------------------|---------------------------------|
D|---------6-------9-------6-------|---------4-------7-------4-------|
A|-7-------------------------------|-5-------------------------------|
E|---------------------------------|---------------------------------|




G|---------------------------------|---------------------------------|
D|---------------------------------|---------4-------5-------6-------|
A|---------4-------5-------6-------|-7-------------------------------|
E|-5-------------------------------|---------------------------------|




  VERSE


G|---------------------------------|---------------------------------|
D|-7-------------------------------|-7-------------------------------|
A|---------------------------------|---------------------------------|
E|---------------------------------|---------------------------------|




G|---------6-------9-------7---6---|---------6-------9-------7---6---|
D|-7---7-------7-------7-----------|-7---7-------7-------7-----------|
A|---------------------------------|---------------------------------|
E|---------------------------------|---------------------------------|




  CHORUS


G|---------------------------------|---------------------------------|
D|---------4-------7-------4-------|---------4-------7-------4---7---|
A|-5-------------------------------|-5-------------------------------|
E|---------------------------------|---------------------------------|




G|---------------------------------|---------------------------------|
D|---------------------------------|---------------------------------|
A|---------4-------7-------4-------|---------4-------7-------4-------|
E|-5-------------------------------|-5-------------------------------|




G|---------------------------------|---------------------------------|
D|-----------------9-------6-------|-----------------7-------4-------|
A|-7-------------------------------|-5-------------------------------|
E|---------------------------------|---------------------------------|




G|---------------------------------|---------------------------------|
D|---------------------------------|---------4-------5-------6-------|
A|---------4-------5-------6-------|-7-------------------------------|
E|-5-------------------------------|---------------------------------|




  VERSE


G|---------------------------------|---------------------------------|
D|-7-------------------------------|-7-------------------------------|
A|---------------------------------|---------------------------------|
E|---------------------------------|---------------------------------|




G|---------------------------------|---------------------------------|
D|-7-------7-------7-------7-------|-7-------7-------7---------------|
A|---------------------------------|---------------------------------|
E|---------------------------------|---------------------------------|




  CHORUS


G|---------------------------------|---------------------------------|
D|-----------------7-------4-------|---------------------------------|
A|-5-------------------------------|-5-------4-------3-------2-------|
E|---------------------------------|---------------------------------|




G|---------------------------------|---------------------------------|
D|---------------------------------|---------------------------------|
A|---------4-------7-------4-------|---------4-------7-------4---7---|
E|-5-------------------------------|-5-------------------------------|




G|---------------------------------|---------------------------------|
D|-----------------9-------6-------|---------4-------7-------4-------|
A|-7-------------------------------|-5-------------------------------|
E|---------------------------------|---------------------------------|




G|---------------------------------|---------------------------------|
D|---------------------------------|---------6---7-----------7-------|
A|---------4-------5-------6-------|-7---9---------------------------|
E|-5-------------------------------|---------------------------------|
Comments