Beatles - Think For Yourself Chords & Tabs

 

Think For Yourself Chords & Tabs

Beatles Chords & Tabs

Version: 5 Type: Bass Tab 0 ratings
1 star 2 stars 3 stars 4 stars 5 stars
comments

Think For Yourself Bass Tab

THINK FOR YOURSELF

By George Harrison

INTRO
                                                     .    .    .
G|---------------------------------|---------------------------------|
D|-5-------5-------5-------5-------|-5-------5-------5----5----6-----|
A|---------------------------------|---------------------------------|
E|---------------------------------|---------------------------------|

VERSE

G|---------------------------------|---------------------------------|
D|-7-----------7---7---7-----------|---------------------------------|
A|-----------------------------7---|-5-----------5---7----5----3-----|
E|---------------------------------|---------------------------------|

G|---------------------------------|---------------------------------|
D|---------------------------------|---------------------------------|
A|-1-----------1---1---1-------1---|-3-----------3---3---3-------5---|
E|---------------------------------|---------------------------------|

G|---------------------------------|---------------------------------|
D|-5-----------5---5---5-----------|-----5-------5---5---5-------6---|
A|-----------------------------5---|-5-------------------------------|
E|---------------------------------|---------------------------------|

G|---------------------------------|---------------------------------|
D|-7-----------7---7---7-----------|---------------------------------|
A|-----------------------------7---|-5---5-------5---7----5----3-----|
E|---------------------------------|---------------------------------|

G|---------------------------------|---------------------------------|
D|---------------------------------|---------------------------------|
A|-1-----------1---1---1-------1---|-3-----------3---3---3-------5---|
E|---------------------------------|---------------------------------|

G|---------------------------------|---------------------------------|
D|-5---5-------5---5---5-------5---/-7---7-------7---7---7-----------|
A|---------------------------------|---------------------------------|
E|---------------------------------|---------------------------------|

CHORUS

G|---------------------------------|---------------------------------|
D|---------2-------5---5---2-------|---------2-------5---5---2-------|
A|-3---3---------------------------|-3---3---------------------------|
E|---------------------------------|---------------------------------|

G|---------------------------------|---------------------------------|
D|-5---5---------------------------|------3--------------------------|
A|---------5---------------5-----3-/-5---------5-----3----1----------|
E|-----------------3---3-----------|---------------------------3-----|

G|---------------------------------|---------------------------------|
D|---------------------------------|-----------------------------3---|
A|-1-------1-------1---1---1-------|-5-------5-------5---5---5-------|
E|---------------------------------|---------------------------------|
                                                     .    .    .
G|---------------------------------|---------------------------------|
D|-5-------5---5---5---5---5-------|-5-------5---5---5----5----6-----|
A|-----------------------------5---|---------------------------------|
E|---------------------------------|---------------------------------|

VERSE

G|---------------------------------|---------------------------------|
D|-7-----------7---7---7-----------|---------------------------------|
A|-------------------------7---6---|-5-----------5---7----5----3-----|
E|---------------------------------|---------------------------------|

G|---------------------------------|---------------------------------|
D|---------------------------------|---------------------------------|
A|-1-----------1---1---1-------3---|-3-----------3---3---3-------5---|
E|---------------------------------|---------------------------------|

G|---------------------------------|---------------------------------|
D|-5-----------5---5---5-----------|-5---5-------5---5---5-------6---|
A|-----------------------------5---|-5-------------------------------|
E|---------------------------------|---------------------------------|

G|---------------------------------|---------------------------------|
D|-7-----------7---7---7-----------|---------------------------------|
A|-------------------------7---6---|-5-----------5---7----5----3-----|
E|---------------------------------|---------------------------------|

G|---------------------------------|---------------------------------|
D|---------------------------------|---------------------------------|
A|-1-----------1---1---1-------1---/-3-----------3---3---3-------5---|
E|---------------------------------|---------------------------------|

G|---------------------------------|---------------------------------|
D|-5-----------5---5---5-----------|-7-----------7---7---7-----------|
A|---------------------------------|---------------------------------|
E|---------------------------------|---------------------------------|

CHORUS

G|---------------------------------|---------------------------------|
D|---------2-------5---5---2-------|---------2-------5-------2-------|
A|-3-------------------------------|-3---3---------------------------|
E|---------------------------------|---------------------------------|
[ Tab from: http://www.guitartabs.cc/tabs/b/beatles/think_for_yourself_btab_ver_5.html ]
G|---------------------------------|---------------------------------|
D|-5---5---------------------------|------3--------------------------|
A|---------5---------------5-----3-/-5---------5-----3----1----------|
E|-----------------3---------------|---------------------------3-----|

G|---------------------------------|---------------------------------|
D|---------------------------------|-----------------------------3---|
A|-1-------1-------1---1---1-------|-5-------5-------5---------------|
E|---------------------------------|---------------------------------|
                                                     .    .    .
G|---------------------------------|---------------------------------|
D|-5-------5---5---5---5---5-------|-5-------5---5---5----5----6-----|
A|---------------------------------|---------------------------------|
E|---------------------------------|---------------------------------|

VERSE

G|---------------------------------|---------------------------------|
D|-7-----------7-------7-----------|---------------------------------|
A|-------------------------7---6---|-5-----------5---7----5----3-----|
E|---------------------------------|---------------------------------|

G|---------------------------------|---------------------------------|
D|---------------------------------|---------------------------------|
A|-1-----------1---1---1-----------|-3-----------3---3---3-------5---|
E|---------------------------------|---------------------------------|

G|---------------------------------|---------------------------------|
D|-5-----------5---5---5-----------|-5-----------5---5---5---5---6---|
A|---------------------------------|---------------------------------|
E|---------------------------------|---------------------------------|

G|---------------------------------|---------------------------------|
D|-7-----------7---7---7-----------|---------------------------------|
A|-----------------------------7---|-5-----------5---7----5----3-----|
E|---------------------------------|---------------------------------|

G|---------------------------------|---------------------------------|
D|---------------------------------|---------------------------------|
A|-1-----------1---1---1-----------|-3-----------3---3---3-------5---|
E|---------------------------------|---------------------------------|

G|---------------------------------|---------------------------------|
D|-5-----------5---5---5-----------|-7-----------7---7---7-----------|
A|---------------------------------|---------------------------------|
E|---------------------------------|---------------------------------|

CHORUS

G|---------------------------------|---------------------------------|
D|---------2-------5---5---2-------|---------2-------5---5---2-------|
A|-3---3---------------------------|-3---3---------------------------|
E|---------------------------------|---------------------------------|

G|---------------------------------|---------------------------------|
D|-5---5---------------------------|------3--------------------------|
A|---------5---------------5-------|-5---------5-----3----1----------|
E|-----------------3---------------|---------------------------3-----|

G|---------------------------------|---------------------------------|
D|---------------------------------|-----------------------------3---|
A|-1-------1-------1---1---1-------|-5-------5---5---5---5---5-------|
E|---------------------------------|---------------------------------|

G|---------------------------------|---------------------------------|
D|-5-------5-------5---5---5-------|-5-------5-------5---5---5-------|
A|-----------------------------5---|---------------------------------|
E|---------------------------------|---------------------------------|

OUTRO

G|---------------------------------|---------------------------------|
D|---------------------------------|---------2-------5---5---2-------|
A|-1-------3-------1---3-------1---|-3---------------------------5---|
E|---------------------------------|---------------------------------|

G|---------------------------------|---------------------------------|
D|-5-------5-----------------------|---------3-----------------------|
A|-----------------5-------5-------|-5-----------5-\-3---1-----------|
E|---------------------------------|-------------------------3-------|

G|---------------------------------|---------------------------------|
D|---------------------------------|-----------------------------3---|
A|-1-------1-------1---1---1-------|-5-------5---5---5---5---5-------|
E|---------------------------------|---------------------------------|

G|---------------------------------|---------------------------------|
D|-5---------------------------5---|---------5-------5---5---5-------|
A|---------3-------3---3-------5---|---------------------------------|
E|---------------------------------|---------------------------------|

G|---------------------------------|---------------------------------|
D|---------------------------------|---------------------------------|
A|-1-------1-------1---1---1-------|-5-------5---5---5---5---5-------|
E|---------------------------------|---------------------------------|

G|---------------------------------|---------------------------------|
D|---------------------------------|-5---5---5---5-------------------|
A|-3-------3-------3---3---3-------|---------------------------------|
E|---------------------------------|---------------------------------|
Comments