Beatles - The Word Chords & Tabs

 

The Word Chords & Tabs

Beatles Chords & Tabs

Version: 1 Type: Tab 0 ratings
1 star 2 stars 3 stars 4 stars 5 stars
comments

The Word Tab

   
#----------------------------------PLEASE NOTE---------------------------------#
#This file is the author's own work and represents their interpretation of the #
#song. You may only use this file for private study, scholarship, or research. #
#------------------------------------------------------------------------------#

Beatles - The Word

by Lennon/McCartney
from Rubber Soul

Intro:

D7
                  
Solo:

  D7                           Cadd9
E|----------------------------|----------------------------|
B|----------------------------|----------------------------|
G|----------------------------|----------------------------|
D|0----------------------3----|0----------------------3----|
A|------3-----0-------0-------|------3-----0-------0-------|
E|-----------------3----------|-----------------3----------|
  F6                           G7
E|----------------------------|----------------------------|
B|----------------------------|----------------------------|
G|----------------------------|----------------------------|
D|0----------------------3----|0---------------------------|
A|------3-----0-------0-------|------3-----0-0-0---0-------|
E|-----------------3----------|------------------3---3-1---|
[ Tab from: http://www.guitartabs.cc/tabs/b/beatles/the_word_tab.html ]
Coda:
Say the
D7 
word    love        Say the    
G7    
word    love        Say the      
D7    
word    love        Say the
Asus4   A         Gsus4   G           
word_______________________
D7
love

Outro Riff:
  D7                           Cadd9
E|----------------------------|----------------------------|
B|----------------------------|----------------------------|
G|----------------------------|----------------------------|
D|0----------------------3----|0----------------------3----|
A|------3-----0-------0-------|------3-----0-------0-------|
E|-----------------3----------|-----------------3----------|
  F6                           G7
E|----------------------------|----------------------------|
B|----------------------------|----------------------------|
G|----------------------------|----------------------------|
D|0----------------------3----|0----------------------3----|
A|------3-----0-------0-------|------3-----0-------0-------|
E|-----------------3----------|-----------------3----------|

PHEW!!

==============================================================================
I                    Transcribed by the Beatles Central Team                 I
I                          jpgr_beatles@yahoo.com                            I
I   Visit Beatles Central for more great Beatles tabs and midis(220+ each).  I
I   Every album covered! http://members.tripod.com/jpgr_beatles/index.html   I
==============================================================================
Comments