Beatles - The Night Before Chords & Tabs

 

The Night Before Chords & Tabs

Beatles Chords & Tabs

Version: 1 Type: Tab 0 ratings
1 star 2 stars 3 stars 4 stars 5 stars
comments

The Night Before Tab

   
---------------------------------PLEASE NOTE---------------------------------
This file is the beatles own work and represents their interpretation of the  
song. You may only use this file for private study, scholarship, or research. 
------------------------------------------------------------------------------
==============================================================================
I                    Transcribed by the Beatles Central Team                 I
I                          jpgr_beatles@yahoo.com                            I
I   Visit Beatles Central for more great Beatles tabs and midis(220+ each).  I
I   And a lot more....   http://members.tripod.com/jpgr_beatles/index.html   I
==============================================================================


   
                          The Night Before


by Lennon/McCartney
from Help!

Intro:

|D      |       |F      |       |G7     |       |A7     |       |
[ Tab from: http://www.guitartabs.cc/tabs/b/beatles/the_night_before_tab.html ]
Solo:
  
  D                            C
-|----------------------------|------------------------------
-|----------------------------|------------------------------
-|--------5b7r5---------------|------------------------------
-|-----------------7----------|-------------5b7r5---3--------
-|----------------------------|------------------------------
-|----------------------------|------------------------------
  G                            A
-|----------------------------|------------------------------
-|----------------------------|------------------------------
-|---------5---7b9r7----5-----|------------------------------
-|-----7----------------------|-------------3b5r3------------
-|----------------------------|---------------------5--------
-|----------------------------|------------------------------
  D                            C
-|----------------------------|------------------------------
-|----------------------------|------------------------------
-|--------5b7r5---------------|------------------------------
-|-----------------7----------|-------------5b7r5---3--------
-|----------------------------|------------------------------
-|----------------------------|------------------------------
  G                            A
-|----------------------------|------------------------------
-|----------------------------|------------------------------
-|---------5---7b9r7----5-----|------------------------------
-|-----7----------------------|-------------3b5r3------------
-|----------------------------|---------------------5--------
-|----------------------------|------------------------------

nd lick:

  D7                           D
-|----------------------------|------------------------------                            
-|----------------------------|------------------------------
-|-----5b7r5------------------|------------------------------
-|--------------7----3b5r3----|------------------------------
-|----------------------------|-5----------------------------
-|----------------------------|------------------------------


-------------------------------------------------------------------------
Tab Special Notations:
----0----  play the open string ('fret zero')
----5----  play fret five
----5~---  play fret five with vibrato
---5/7---  play fret five, slide up to fret seven
---7\5---  play fret seven, slide down to fret five
--8b(9)--  play fret eight, bend the string (at fret eight) to reach
             the pitch of fret nine
--b(9)8--  play fret eight already bent to the pitch of fret nine,
             unbending until it reaches the normal pitch of fret eight
----h7---  hammer-on to fret seven
----p5---  pull-off to fret five
---/7----  slide up to fret 7 (the starting fret of the slide is
             undefined, judge by ear)
---15\---  play fret 15, slide down (the ending fret of the slide is
             undefined, judge by ear)
---0h3---  play the open string and immediately hammer-on to fret
             three
---7p5---  play fret seven and immediately pull-off to fret five



Comments