Beatles - The Long And Winding Road Chords & Tabs

 

The Long And Winding Road Chords & Tabs

Beatles Chords & Tabs

Version: 1 Type: Bass Tab 0 ratings
1 star 2 stars 3 stars 4 stars 5 stars
comments

The Long And Winding Road Bass Tab

Song:  The Long and Winding Road
Artist:   Beatles
Bassist:  Paul McCartney	
Tab by:  Seth Ferguson (Sethferg@cs.com)

This song is fairly easy to play, and it's my first tab.  I noticed nobody else
has tabbed it, so i gave it a shot.  If u have any corrections, feel free to post
them.  Enjoy!

Intro (bass comes in around 0:05)

G-----------|
D-----------|
A-----------|
E6-6----6-6-|

Verse 1
G--------------|-------------|--------------------
D--------------|-------------|-------------8\11---
A--6--4--------|----------3--|--------6\10--------
E---------4----|-4----3------|-1---6--------------


G---------------|------------|-------|
D---------------|------------|--10*--|
A-11----10------|---------6--|-------|
E-------------8-|-1---6------|-------|

Verse 2 (start with this:)

G----------|
D----------|
A----------|
E6-6---6-6-|

G--------------|-------------|--------------------
D--------------|-------------|-------------8\11---
A--6--4--------|----------3--|--------6\10--------
E---------4----|-4----3------|-1---6--------------


G---------------|------------|-------|
D---------------|------------|--10*--|
A-11----10------|---------6--|-------|
E-------------8-|-1---6------|-------|

[ Tab from: http://www.guitartabs.cc/tabs/b/beatles/the_long_and_winding_road_btab.html ]
"Many times I've been alone..."
G|----------------|---------------------|
D|-8--6--5--------|-8--6--5-----8--10*--|
A|----------8-----|----------8----------|
E|--------------6-|---------------------|

Verse 3 

G----------|
D----------|
A----------|
E6-6---6-6-|

G--------------|--------------|--------------------
D--------------|--------------|-------------8\11---
A--6--4--------|----------3\--|--------6\10--------
E---------4----|-4----3-------|-1---6--------------


G---------------|------------|-------|
D---------------|------------|--10*--|
A-11----10------|---------6--|-------|
E-------------8-|-1---6------|-------|

Orchestra instrumental part

G|----------|----------|---------|----------|-----
D|-8-8--6-6-|-5-5----8-|-8-8--6-6|-5-5---8--|-10*-
A|----------|------8---|---------|-----8----|-----
E|----------|----------|---------|----------|-----

G----------|
D----------|
A----------|
E6-6---6-6-|

G--------------|-------------|--------------------
D--------------|-------------|-------------8\11---
A--6--4--------|----------3--|--------6\10--------
E---------4----|-4-----3-----|-1---6--------------


G---------------|------------|-------|----------|
D---------------|------------|--10*--|----------|
A-11----10------|---------6--|-------|----1---6-|
E-------------8-|-1---6------|-------|-1--------|

G----------|-----|
D----------|-----|
A----------|--6\-|
E6-6---6-6-|-----|
Comments